Bad Decisions - The Strokes

Chords

01234567891011121314151617181920212223
E
B
G
D
A
E
B
0 1 2 3 4 5 6 7 8 9 10 11 12 13 14 15 16 17 18 19 20 21 22 23
(/) Slide Up  (\) Slide Down  (h) Hammer On  (p) Pull Off  (b) Bend (r) Release (v) Vibrato

Verso Guitarra 1                                                                        

E|-----------------------------------------------------
B|-----------------------------------------------------
G|--0-----0--------------------------------------------
D|-----------3-----2-----0-----3-----3--2-----0--------
A|-----3--------3-----3-----------------------------3--
E|--------------------------1-----1--------1-----1-----

Verso Guitarra 2

E|--8--8--8--8--8--8--8--8--8--8--8--8--8--8--8--8--5--5--5--5--5--5--5--5--5--5--5--5--5--5--5--5--
B|--8--8--8--8--8--8--8--8--8--8--8--8--8--8--8--8--6--6--6--6--6--6--6--6--6--6--6--6--6--6--6--6--
G|--9--9--9--9--9--9--9--9--9--9--9--9--9--9--9--9--5--5--5--5--5--5--5--5--5--5--5--5--5--5--5--5--
D|--------------------------------------------------------------------------------------------------
A|--------------------------------------------------------------------------------------------------
E|--------------------------------------------------------------------------------------------------

Coro Guitarra 1

E|---------------------------------------------------------------------------------------------------------------------------
B|---------------------------------------------------------------------------------------------------------------------------
G|--5-----------5-----5-----------7-----------7-----7-----------7-----------7-----7-----------9------------9-----9-----------
D|-----7-----7-----7-----7--7--7-----7-----7-----7-----7--7--7-----7-----7-----7-----7--7--7-----9------9-----9-----9--9--9--
A|--------7-----------------------------8-----------------------------8-----------------------------10-----------------------
E|---------------------------------------------------------------------------------------------------------------------------

Coro Guitarra 2

E|--8---8---8---8---8---8---8---8---8---8---8---8---8---8---8---8---5--5--5--5--5--5--5--5--5--5--5--5--5--5--5--5--5--5--5--5--5--5--5--5--5--5--5--5--5--5--5--5--7--7--7--7--7--7--7--7--7--7--7--7--7--7--7--7--
B|--10--10--10--10--10--10--10--10--10--10--10--10--10--10--10--10--6--6--6--6--6--6--6--6--6--6--6--6--6--6--6--6--6--6--6--6--6--6--6--6--6--6--6--6--6--6--6--6--8--8--8--8--8--8--8--8--8--8--8--8--8--8--8--8--
G|--9---9---9---9---9---9---9---9---9---9---9---9---9---9---9---9---5--5--5--5--5--5--5--5--5--5--5--5--5--5--5--5--7--7--7--7--7--7--7--7--7--7--7--7--7--7--7--7--9--9--9--9--9--9--9--9--7--7--7--7--7--7--7--7--
D|------------------------------------------------------------------------------------------------------------------------------------------------------------------------------------------------------------------
A|------------------------------------------------------------------------------------------------------------------------------------------------------------------------------------------------------------------
E|------------------------------------------------------------------------------------------------------------------------------------------------------------------------------------------------------------------

Stave 5:

E|------12------------------------------12--------------------------
B|--13------13--12--10--18--10--12--13------13--12--12--13--12--10--
G|------------------------------------------------------------------
D|------------------------------------------------------------------
A|------------------------------------------------------------------
E|------------------------------------------------------------------

Arpeggio Guitarra 1

E|------12----------12----------12------12----------12----------12------13----------13----------13------13----------13----------13--
B|----------13----------13------------------13----------13------------------13----------13------------------13----------13----------
G|--12----------12----------12------12----------12----------12------14----------14----------14------14----------14----------14------
D|----------------------------------------------------------------------------------------------------------------------------------
A|----------------------------------------------------------------------------------------------------------------------------------
E|----------------------------------------------------------------------------------------------------------------------------------

Arpeggio Guitarra 2

E|-----------10-----8-----------------10-----8------------------------------------------------------------------------
B|-----8------------------8-----8------------------8------11------10------10------10------11------10------10------10--
G|--9-----9------9-----9-----9-----9------9-----9-----10------10------10------10------10------10------10------10------
D|--------------------------------------------------------------------------------------------------------------------
A|--------------------------------------------------------------------------------------------------------------------
E|--------------------------------------------------------------------------------------------------------------------

							http://www.guitartabcreator.com
Instruments
{"strings":[[[".",".",".",".",".",".",".",".",".",".",".",".",".",".",".",".","."],[".",".",".",".",".",".",".",".",".",".",".",".",".",".",".",".","."],[0,".",0,".",".",".",".",".",".",".",".",".",".",".",".",".","."],[".",".",".",3,".",2,".",0,".",3,".",3,2,".",0,".","."],[".",3,".",".",3,".",3,".",".",".",".",".",".",".",".",".",3],[".",".",".",".",".",".",".",".",1,".",1,".",".",1,".",1,"."]],[[8,8,8,8,8,8,8,8,8,8,8,8,8,8,8,8,5,5,5,5,5,5,5,5,5,5,5,5,5,5,5,5],[8,8,8,8,8,8,8,8,8,8,8,8,8,8,8,8,6,6,6,6,6,6,6,6,6,6,6,6,6,6,6,6],[9,9,9,9,9,9,9,9,9,9,9,9,9,9,9,9,5,5,5,5,5,5,5,5,5,5,5,5,5,5,5,5],[".",".",".",".",".",".",".",".",".",".",".",".",".",".",".",".",".",".",".",".",".",".",".",".",".",".",".",".",".",".",".","."],[".",".",".",".",".",".",".",".",".",".",".",".",".",".",".",".",".",".",".",".",".",".",".",".",".",".",".",".",".",".",".","."],[".",".",".",".",".",".",".",".",".",".",".",".",".",".",".",".",".",".",".",".",".",".",".",".",".",".",".",".",".",".",".","."]],[[".",".",".",".",".",".",".",".",".",".",".",".",".",".",".",".",".",".",".",".",".",".",".",".",".",".",".",".",".",".",".",".",".",".",".",".",".",".",".","."],[".",".",".",".",".",".",".",".",".",".",".",".",".",".",".",".",".",".",".",".",".",".",".",".",".",".",".",".",".",".",".",".",".",".",".",".",".",".",".","."],[5,".",".",".",5,".",5,".",".",".",7,".",".",".",7,".",7,".",".",".",7,".",".",".",7,".",7,".",".",".",9,".",".",".",9,".",9,".",".","."],[".",7,".",7,".",7,".",7,7,7,".",7,".",7,".",7,".",7,7,7,".",7,".",7,".",7,".",7,7,7,".",9,".",9,".",9,".",9,9,9],[".",".",7,".",".",".",".",".",".",".",".",".",8,".",".",".",".",".",".",".",".",".",8,".",".",".",".",".",".",".",".",".",10,".",".",".",".",".",".","."],[".",".",".",".",".",".",".",".",".",".",".",".",".",".",".",".",".",".",".",".",".",".",".",".",".",".",".",".",".",".",".",".",".",".",".",".",".",".",".","."]],[[8,8,8,8,8,8,8,8,8,8,8,8,8,8,8,8,5,5,5,5,5,5,5,5,5,5,5,5,5,5,5,5,5,5,5,5,5,5,5,5,5,5,5,5,5,5,5,5,7,7,7,7,7,7,7,7,7,7,7,7,7,7,7,7],[10,10,10,10,10,10,10,10,10,10,10,10,10,10,10,10,6,6,6,6,6,6,6,6,6,6,6,6,6,6,6,6,6,6,6,6,6,6,6,6,6,6,6,6,6,6,6,6,8,8,8,8,8,8,8,8,8,8,8,8,8,8,8,8],[9,9,9,9,9,9,9,9,9,9,9,9,9,9,9,9,5,5,5,5,5,5,5,5,5,5,5,5,5,5,5,5,7,7,7,7,7,7,7,7,7,7,7,7,7,7,7,7,9,9,9,9,9,9,9,9,7,7,7,7,7,7,7,7],[".",".",".",".",".",".",".",".",".",".",".",".",".",".",".",".",".",".",".",".",".",".",".",".",".",".",".",".",".",".",".",".",".",".",".",".",".",".",".",".",".",".",".",".",".",".",".",".",".",".",".",".",".",".",".",".",".",".",".",".",".",".",".","."],[".",".",".",".",".",".",".",".",".",".",".",".",".",".",".",".",".",".",".",".",".",".",".",".",".",".",".",".",".",".",".",".",".",".",".",".",".",".",".",".",".",".",".",".",".",".",".",".",".",".",".",".",".",".",".",".",".",".",".",".",".",".",".","."],[".",".",".",".",".",".",".",".",".",".",".",".",".",".",".",".",".",".",".",".",".",".",".",".",".",".",".",".",".",".",".",".",".",".",".",".",".",".",".",".",".",".",".",".",".",".",".",".",".",".",".",".",".",".",".",".",".",".",".",".",".",".",".","."]],[[".",12,".",".",".",".",".",".",".",12,".",".",".",".",".","."],[13,".",13,12,10,18,10,12,13,".",13,12,12,13,12,10],[".",".",".",".",".",".",".",".",".",".",".",".",".",".",".","."],[".",".",".",".",".",".",".",".",".",".",".",".",".",".",".","."],[".",".",".",".",".",".",".",".",".",".",".",".",".",".",".","."],[".",".",".",".",".",".",".",".",".",".",".",".",".",".",".","."]],[[".",12,".",".",12,".",".",12,".",12,".",".",12,".",".",12,".",13,".",".",13,".",".",13,".",13,".",".",13,".",".",13],[".",".",13,".",".",13,".",".",".",".",13,".",".",13,".",".",".",".",13,".",".",13,".",".",".",".",13,".",".",13,".","."],[12,".",".",12,".",".",12,".",12,".",".",12,".",".",12,".",14,".",".",14,".",".",14,".",14,".",".",14,".",".",14,"."],[".",".",".",".",".",".",".",".",".",".",".",".",".",".",".",".",".",".",".",".",".",".",".",".",".",".",".",".",".",".",".","."],[".",".",".",".",".",".",".",".",".",".",".",".",".",".",".",".",".",".",".",".",".",".",".",".",".",".",".",".",".",".",".","."],[".",".",".",".",".",".",".",".",".",".",".",".",".",".",".",".",".",".",".",".",".",".",".",".",".",".",".",".",".",".",".","."]],[[".",".",".",10,".",8,".",".",".",".",".",10,".",8,".",".",".",".",".",".",".",".",".",".",".",".",".",".",".",".",".","."],[".",8,".",".",".",".",".",8,".",8,".",".",".",".",".",8,".",11,".",10,".",10,".",10,".",11,".",10,".",10,".",10],[9,".",9,".",9,".",9,".",9,".",9,".",9,".",9,".",10,".",10,".",10,".",10,".",10,".",10,".",10,".",10,"."],[".",".",".",".",".",".",".",".",".",".",".",".",".",".",".",".",".",".",".",".",".",".",".",".",".",".",".",".",".",".",".","."],[".",".",".",".",".",".",".",".",".",".",".",".",".",".",".",".",".",".",".",".",".",".",".",".",".",".",".",".",".",".",".","."],[".",".",".",".",".",".",".",".",".",".",".",".",".",".",".",".",".",".",".",".",".",".",".",".",".",".",".",".",".",".",".","."]]],"numberofstrings":6,"notes":["E","B","G","D","A","E","B"],"capo":0,"stringnotes":["E4","B3","G3","D3","A2","E2"],"comments":["Verso Guitarra 1 ","Verso Guitarra 2","Coro Guitarra 1","Coro Guitarra 2","Stave 5:","Arpeggio Guitarra 1","Arpeggio Guitarra 2"],"timing":[[null,"W","W","W","W","W","W","W","W","W","W","W","W","W","W","W","W","W"],[null,"W","W","W","W","W","W","W","W","W","W","W","W","W","W","W","W",null,"W","W","W","W","W","W","W","W","W","W","W","W","W","W","W"],[null,"W","W","W","W","W","W","W","W","W","W","W","W","W","W","W","W","W","W","W","W","W","W","W","W","W","W","W","W","W","W","W","W","W","W","W","W","W","W","W","W"],[null,null,"W","W","W","W","W","W","W","W","W","W","W","W","W","W","W","W","W","W","W","W","W","W","W","W","W","W","W","W","W","W","W","W","W","W","W","W","W","W","W","W","W","W","W","W","W","W",null,"W","W","W","W","W","W","W","W","W","W","W","W","W","W","W","W"],[null,"W","W","W","W","W","W","W","W","W","W","W","W","W","W","W","W"],[null,"W","W","W","W","W","W","W","W","W","W","W","W","W","W","W","W","W","W","W","W","W","W","W","W","W","W","W","W","W","W","W","W"],[null,"W","W","W","W","W","W","W","W","W","W","W","W","W","W","W","W","W","W","W","W","W","W","W","W","W","W","W","W","W","W","W","W"]],"timingvisible":false,"tabcounter":32,"stave":6,"totalstaves":7,"instrument":"6guitar","selectedtuning":"6_standard","version":"13"}

Member for

1 week 4 days
Submitted by T-bone on Fri, 2020-05-22 20:09