it runs trough me

Chords

01234567891011121314151617181920212223
E
B
G
D
A
E
B
0 1 2 3 4 5 6 7 8 9 10 11 12 13 14 15 16 17 18 19 20 21 22 23
(/) Slide Up  (\) Slide Down  (h) Hammer On  (p) Pull Off  (b) Bend (r) Release (v) Vibrato

Stave 1:

E|---------------------------------------------------------------7-------------------------------------------------------------
B|--3--5--7--8--10--7h8------------------------------7h10--7--------10-----7--7------------------------------------------------
G|-----------------------10\9--10\9--7----------7h9---------------------------------9-----9p7----------------------------------
D|-----------------------------------------7h9-------------------------------------------------9-----9p7-----------------------
A|--------------------------------------------------------------------------------------------------------9-----9p7------------
E|-------------------------------------------------------------------------------------------------------------------10--7-----

Stave 2:

E|--------------------------------------------------------------------------------------------19p17v--------17p15--------
B|------------------------------------------------------------------14-----17/19/17/19-----------------------------------
G|------------------------------12p11------11-----14-----16p14-----------------------------------------------------------
D|-------------------------------------14-----------------------16-------------------------------------------------------
A|--5h7/9/10/12/14/16/14/16----------------------------------------------------------------------------------------------
E|-----------------------------------------------------------------------------------------------------------------------

Stave 3:

E|--15p14--------15p14/17-----15--14--12--------------------------------------------------------------------------
B|----------------------------------------15--14--11/12--------------------------------------------------7h10--7--
G|-------------------------------------------------------14p12p11h12\14-----------------------------7h9-----------
D|-----------------------------------------------------------------------14/12p11h12\14--7h9-----9----------------
A|----------------------------------------------------------------------------------------------------------------
E|----------------------------------------------------------------------------------------------------------------

Stave 4:

E|--------------------------------------------------------------------------------------
B|--10/12---------9/10-----------------10p7-----10p7-----10p7-----10p7-----10p7--10b12--
G|---------10/11--------10\9--7--------------9--------9--------9--------9---------------
D|--------------------------------------------------------------------------------------
A|--------------------------------------------------------------------------------------
E|--------------------------------------------------------------------------------------

							http://www.guitartabcreator.com
Instruments
{"strings":[[[".",".",".",".",".",".",".",".",".",".",".",".",".",".",".","_",".",".",".",".",".",".",".",".",".",".","_",7,".","_",".",".","_",".","_",".",".",".",".","_",".",".",".",".","_",".",".",".",".",".","_"],[3,5,7,8,10,7,"h",8,".",".",".",".",".",".",".","_",".",".",".",".",".",".",7,"h",10,7,"_",".",10,"_",7,7,"_",".","_",".",".",".",".","_",".",".",".",".","_",".",".",".",".",".","_"],[".",".",".",".",".",".",".",".",10,"\\",9,10,"\\",9,7,"_",".",".",".",7,"h",9,".",".",".",".","_",".",".","_",".",".","_",9,"_",9,"p",7,".","_",".",".",".",".","_",".",".",".",".",".","_"],[".",".",".",".",".",".",".",".",".",".",".",".",".",".",".","_",7,"h",9,".",".",".",".",".",".",".","_",".",".","_",".",".","_",".","_",".",".",".",9,"_",9,"p",7,".","_",".",".",".",".",".","_"],[".",".",".",".",".",".",".",".",".",".",".",".",".",".",".","_",".",".",".",".",".",".",".",".",".",".","_",".",".","_",".",".","_",".","_",".",".",".",".","_",".",".",".",9,"_",9,"p",7,".",".","_"],[".",".",".",".",".",".",".",".",".",".",".",".",".",".",".","_",".",".",".",".",".",".",".",".",".",".","_",".",".","_",".",".","_",".","_",".",".",".",".","_",".",".",".",".","_",".",".",".",10,7,"_"]],[[".",".",".",".",".",".",".",".",".",".",".",".",".",".",".",".",".","_",".",".",".",".",".","_",".","_",".",".",".",".",".","_",".",".",".",".",".",".",".","_","_",19,"p",17,"v","_","_",17,"p",15,"_","_"],[".",".",".",".",".",".",".",".",".",".",".",".",".",".",".",".",".","_",".",".",".",".",".","_",".","_",".",".",".",".",14,"_",17,"/",19,"/",17,"/",19,"_","_",".",".",".",".","_","_",".",".",".","_","_"],[".",".",".",".",".",".",".",".",".",".",".",".",".",".",".",".",".","_",12,"p",11,".",11,"_",14,"_",16,"p",14,".",".","_",".",".",".",".",".",".",".","_","_",".",".",".",".","_","_",".",".",".","_","_"],[".",".",".",".",".",".",".",".",".",".",".",".",".",".",".",".",".","_",".",".",".",14,".","_",".","_",".",".",".",16,".","_",".",".",".",".",".",".",".","_","_",".",".",".",".","_","_",".",".",".","_","_"],[5,"h",7,"/",9,"/",10,"/",12,"/",14,"/",16,"/",14,"/",16,"_",".",".",".",".",".","_",".","_",".",".",".",".",".","_",".",".",".",".",".",".",".","_","_",".",".",".",".","_","_",".",".",".","_","_"],[".",".",".",".",".",".",".",".",".",".",".",".",".",".",".",".",".","_",".",".",".",".",".","_",".","_",".",".",".",".",".","_",".",".",".",".",".",".",".","_","_",".",".",".",".","_","_",".",".",".","_","_"]],[[15,"p",14,"_","_",15,"p",14,"/",17,"_",15,14,12,".",".",".",".",".",".",".",".",".",".",".",".",".",".",".",".",".",".",".",".",".",".",".",".",".",".","_",".",".",".",".",".",".",".","."],[".",".",".","_","_",".",".",".",".",".","_",".",".",".",15,14,11,"/",12,".",".",".",".",".",".",".",".",".",".",".",".",".",".",".",".",".",".",".",".",".","_",".",".",".",".",7,"h",10,7],[".",".",".","_","_",".",".",".",".",".","_",".",".",".",".",".",".",".",".",14,"p",12,"p",11,"h",12,"\\",14,".",".",".",".",".",".",".",".",".",".",".",".","_",".",7,"h",9,".",".",".","."],[".",".",".","_","_",".",".",".",".",".","_",".",".",".",".",".",".",".",".",".",".",".",".",".",".",".",".",".",14,"/",12,"p",11,"h",12,"\\",14,7,"h",9,"_",9,".",".",".",".",".",".","."],[".",".",".","_","_",".",".",".",".",".","_",".",".",".",".",".",".",".",".",".",".",".",".",".",".",".",".",".",".",".",".",".",".",".",".",".",".",".",".",".","_",".",".",".",".",".",".",".","."],[".",".",".","_","_",".",".",".",".",".","_",".",".",".",".",".",".",".",".",".",".",".",".",".",".",".",".",".",".",".",".",".",".",".",".",".",".",".",".",".","_",".",".",".",".",".",".",".","."]],[[".",".",".",".",".",".",".",".",".",".",".",".",".","_","_",".",".",".",".",".",".",".",".",".",".",".",".",".",".",".",".",".",".",".",".",".","."],[10,"/",12,".",".",".",9,"/",10,".",".",".",".","_","_",10,"p",7,".",10,"p",7,".",10,"p",7,".",10,"p",7,".",10,"p",7,10,"b",12],[".",".",".",10,"/",11,".",".",".",10,"\\",9,7,"_","_",".",".",".",9,".",".",".",9,".",".",".",9,".",".",".",9,".",".",".",".",".","."],[".",".",".",".",".",".",".",".",".",".",".",".",".","_","_",".",".",".",".",".",".",".",".",".",".",".",".",".",".",".",".",".",".",".",".",".","."],[".",".",".",".",".",".",".",".",".",".",".",".",".","_","_",".",".",".",".",".",".",".",".",".",".",".",".",".",".",".",".",".",".",".",".",".","."],[".",".",".",".",".",".",".",".",".",".",".",".",".","_","_",".",".",".",".",".",".",".",".",".",".",".",".",".",".",".",".",".",".",".",".",".","."]]],"numberofstrings":6,"notes":["E","B","G","D","A","E","B"],"capo":0,"stringnotes":["E4","B3","G3","D3","A2","E2"],"comments":["Stave 1:","Stave 2:","Stave 3:","Stave 4:"],"timing":[[null,null,null,null,null,null,null,null,null,null,"W","W",null,"W","W","W","W",null,"W","W",null,"W","W",null,"W","W","W","W","W","W","W","W",null,"W",null,"W",null,"W","W",null,"W",null,"W","W",null,"W",null,"W","W","W"],["W",null,"W",null,"W",null,"W",null,"W",null,"W",null,"W",null,"W",null,"W",null,"W",null,"W","W","W","W","W",null,"W",null,"W","W","W","W","W",null,"W","W","W",null,"W",null,null,"W",null,"W",null,null,null,"W",null,"W","W"],["W",null,"W",null,null,"W",null,"W",null,"W",null,"W","W","W","W","W","W",null,"W","W",null,"W","W","W",null,"W",null,"W","W",null,"W",null,"W",null,"W",null,"W","W",null,"W",null,"W","W",null,"W","W",null,"W","W","W"],["W",null,"W","W","W","W","W",null,"W","W",null,"W","W",null,null,"W",null,"W","W","W",null,"W","W","W",null,"W","W","W",null,"W","W","W",null,"W","W",null,"W"]],"timingvisible":false,"tabcounter":37,"stave":3,"totalstaves":4,"instrument":"6guitar","selectedtuning":"6_standard","version":"13"}

Member for

3 days 13 hours
Submitted by Syx on Thu, 2020-10-15 20:45