Vertical Horizon - We are

01234567891011121314151617181920212223
E
B
G
D
A
E
B
0 1 2 3 4 5 6 7 8 9 10 11 12 13 14 15 16 17 18 19 20 21 22 23
(/) Slide Up  (\) Slide Down  (h) Hammer On  (p) Pull Off  (b) Bend (r) Release (v) Vibrato

Capo Fret 2

Chorus

Eb|--------------------------------------------------------3--3--3--3--3--3--3--------3--3--3--3--3--3--3--
Bb|-----------------------------0--0--0--0--0--0--0--------3--3--3--3--3--3--3--------3--3--3--3--3--3--3--
Gb|--4--4--4--4--4--4--4--x--x--2--2--2--2--2--2--2--x--x-----------------------x--x-----------------------
Db|--4--4--4--4--4--4--4--x--x--2--2--2--2--2--2--2--x--x--2--2--2--2--2--2--2--x--x-----------------------
Ab|--2--2--2--2--2--2--2--x--x-----------------------x--x--2--2--2--2--2--2--2--x--x--2--2--2--2--2--2--2--
Eb|-----------------------------------------------------------------------------------3--3--3--3--3--3--3--

Verse

Eb|--------2----------------5--------5--------5--------------2-------------7--------7--------7-----
Bb|-----3----------3-----3--------3--------3-----3--------3-------------5--------5--------5-----5--
Gb|--4--------2/4-----4--------4--------4--------------4--------2/4--4--------4--------4-----------
Db|------------------------------------------------------------------------------------------------
Ab|------------------------------------------------------------------------------------------------
Eb|------------------------------------------------------------------------------------------------

Bridge

Eb|-----------------------------------------------------------------------------------
Bb|--------0--0--0--0--x--x--------0--0--0--0--x--x--------0--0--0--0--x--x--------0--
Gb|--------2--2--2--2--x--x--------2--2--2--2--x--x--------2--2--2--2--x--x--------2--
Db|--4--5--2--2--2--2--x--x--4--5--2--2--2--2--x--x--4--5--2--2--2--2--x--x--4--5--2--
Ab|--4--5--------------------4--5--------------------4--5--------------------4--5-----
Eb|--2--3--------------------2--3--------------------2--3--------------------2--3-----

							http://www.guitartabcreator.com
Chords

Instruments
{"strings":[[[".",".",".",".",".",".",".",".",".",".",".",".",".",".",".",".",".",".",3,3,3,3,3,3,3,".",".",3,3,3,3,3,3,3],[".",".",".",".",".",".",".",".",".",0,0,0,0,0,0,0,".",".",3,3,3,3,3,3,3,".",".",3,3,3,3,3,3,3],[4,4,4,4,4,4,4,"x2","x2",2,2,2,2,2,2,2,"x2","x2",".",".",".",".",".",".",".","x2","x2",".",".",".",".",".",".","."],[4,4,4,4,4,4,4,"x2","x2",2,2,2,2,2,2,2,"x2","x2",2,2,2,2,2,2,2,"x2","x2",".",".",".",".",".",".","."],[2,2,2,2,2,2,2,"x2","x2",".",".",".",".",".",".",".","x2","x2",2,2,2,2,2,2,2,"x2","x2",2,2,2,2,2,2,2],[".",".",".",".",".",".",".",".",".",".",".",".",".",".",".",".",".",".",".",".",".",".",".",".",".",".",".",3,3,3,3,3,3,3]],[[".",".",2,".",".",".",".",".",".",5,".",".",5,".",".",5,".","_",".",".",2,".",".",".",".",".",7,".",".",7,".",".",7,"."],[".",3,".",".",".",".",3,".",3,".",".",3,".",".",3,".",3,"_",".",3,".",".",".",".",".",5,".",".",5,".",".",5,".",5],[4,".",".",2,"/",4,".",4,".",".",4,".",".",4,".",".",".","_",4,".",".",2,"/",4,4,".",".",4,".",".",4,".",".","."],[".",".",".",".",".",".",".",".",".",".",".",".",".",".",".",".",".","_",".",".",".",".",".",".",".",".",".",".",".",".",".",".",".","."],[".",".",".",".",".",".",".",".",".",".",".",".",".",".",".",".",".","_",".",".",".",".",".",".",".",".",".",".",".",".",".",".",".","."],[".",".",".",".",".",".",".",".",".",".",".",".",".",".",".",".",".","_",".",".",".",".",".",".",".",".",".",".",".",".",".",".",".","."]],[[".",".",".",".",".",".",".",".",".",".",".",".",".",".",".",".",".",".",".",".",".",".",".",".",".",".","."],[".",".",0,0,0,0,"x2","x2",".",".",0,0,0,0,"x2","x2",".",".",0,0,0,0,"x2","x2",".",".",0],[".",".",2,2,2,2,"x2","x2",".",".",2,2,2,2,"x2","x2",".",".",2,2,2,2,"x2","x2",".",".",2],[4,5,2,2,2,2,"x2","x2",4,5,2,2,2,2,"x2","x2",4,5,2,2,2,2,"x2","x2",4,5,2],[4,5,".",".",".",".",".",".",4,5,".",".",".",".",".",".",4,5,".",".",".",".",".",".",4,5,"."],[2,3,".",".",".",".",".",".",2,3,".",".",".",".",".",".",2,3,".",".",".",".",".",".",2,3,"."]]],"numberofstrings":6,"notes":["DsEb","AsBb","FsGb","CsDb","GsAb","DsEb"],"capo":"2","stringnotes":["Eb3","Bb2","Gb2","Db2","Ab1","Eb1"],"comments":["Chorus","Verse","Bridge"],"timing":[["W","W","W","W","W","W","W","W","W","W","W","W","W","W","W","W","W","W","W","W","W","W","W","W","W","W","W","W","W","W","W","W","W","W"],["W","W","W","W","W","W","W","W","W","W","W","W","W","W","W","W","W",null,"W","W","W","W",null,"W","W","W","W","W","W","W","W","W","W","W","W"],["W","W","W","W","W","W","W","W","W","W","W","W","W","W","W","W","W","W","W","W","W","W","W","W","W","W","W"]],"timingvisible":false,"tabcounter":27,"stave":2,"totalstaves":3,"instrument":"6guitar","selectedtuning":"Half Step Down","version":"13"}

Member for

7 months 3 weeks
Submitted by synerlogic on Thu, 2020-06-04 04:13