Ed Sheeran - Blow

01234567891011121314151617181920212223
E
B
G
D
A
E
B
0 1 2 3 4 5 6 7 8 9 10 11 12 13 14 15 16 17 18 19 20 21 22 23
(/) Slide Up  (\) Slide Down  (h) Hammer On  (p) Pull Off  (b) Bend (r) Release (v) Vibrato

Guitar 1 verse/chorus

Eb|-----------------------------------------------------------------------
Bb|-----------------------------------------------------------------------
Gb|-----------------------------------------------------------------------
Db|-----------------------------------------------------------------------
Ab|-----------5--7--------------------------5--7-----------5--------------
Eb|--0--0--0--------0--0--0--5--3--0--0--0--------5--6--7-----7--6--5--3--

Guitar 2 verse / chorus

Eb|----------------------------------------------------------------10-----------------
Bb|--5--5--5--15--17--5--5--5--10--8--5--5--5--15--17--10--11--12------12--11--10--8--
Gb|-----------------------------------------------------------------------------------
Db|-----------------------------------------------------------------------------------
Ab|-----------------------------------------------------------------------------------
Eb|-----------------------------------------------------------------------------------

Guitar 1

Eb|--------------------------------------------------
Bb|--------------------------------------------------
Gb|--------------------------------------------------
Db|--5--5--5--5--5--5--5--5--7--7--7--7--7--7--7--7--
Ab|--5--5--5--5--5--5--5--5--7--7--7--7--7--7--7--7--
Eb|--3--3--3--3--3--3--3--3--5--5--5--5--5--5--5--5--

Guitar 2

Eb|--------------------------------------------------
Bb|--5--5--5--5--5--5--5--5--5--5--5--5--5--5--5--5--
Gb|--------------------------------------------------
Db|--------------------------------------------------
Ab|--------------------------------------------------
Eb|--------------------------------------------------

Guitar 1

Eb|--------------------------------------------------------------
Bb|--------------------------------------------------------------
Gb|--------------------------------------------------------7-----
Db|--5--5--5--5--5--5--5--5--7--7--7--7--7--7--7--7--0-----7--7--
Ab|--5--5--5--5--5--5--5--5--7--7--7--7--7--7--7--7--0-----5--7--
Eb|--3--3--3--3--3--3--3--3--5--5--5--5--5--5--5--5--0--------5--

Guitar 2

Eb|------------------------------------------------------------------
Bb|--5--5--5--5--7--7--7--7--8--8--8--8--10--10--10--10--5-----------
Gb|------------------------------------------------------------7-----
Db|------------------------------------------------------------7--7--
Ab|------------------------------------------------------------5--7--
Eb|---------------------------------------------------------------5--

Guitar 1 bridge / solo section

Eb|--------------------------------------------------
Bb|--------------------------------------------------
Gb|--------------------------------------------------
Db|--0--0-----0--0-----5--7-----0--0-----0--5--5--7--
Ab|--0--0-----0--0-----5--7-----0--0-----0--5--5--7--
Eb|--0--0-----0--0-----3--5-----0--0-----0--3--3--5--

Guitar 2 solo

Eb|--------------15--------------14-----------------------------------------------------------------------------------------------
Bb|--12--15--12------12--15--12------12--15--12--12b14--15--12------12--15--12--12b14--15--12-------------------------------------
Gb|-------------------------------------------------------------12-----------------------------12--12--14--12--12b14--14--12------
Db|---------------------------------------------------------------------------------------------------------------------------14--
Ab|-------------------------------------------------------------------------------------------------------------------------------
Eb|-------------------------------------------------------------------------------------------------------------------------------

Guitar 2 solo

Eb|----------------------------------------------14--------------15--15--14--12--------------------------------------------------
Bb|--------------15--------------14----------------------------------------------15--14--12------------------14--14--------------
Gb|--12--14--12------12--14--12------12--14--12------12--14--12------------------------------15--14--12------14--14------12--14--
Db|------------------------------------------------------------------------------------------------------14----------14----------
Ab|------------------------------------------------------------------------------------------------------------------------------
Eb|------------------------------------------------------------------------------------------------------------------------------

Guitar 2 solo

Eb|----------------------------------------------------------------------------------------------12-------------
Bb|----------------------------------------------------------------------11------11--15--12--15------15--15--15b
Gb|--14--12--14--14--12--11--12--14--------------------------11--12--14------14---------------------------------
Db|----------------------------------11--12--14--11--12--14-----------------------------------------------------
Ab|-------------------------------------------------------------------------------------------------------------
Eb|-------------------------------------------------------------------------------------------------------------

Guitar 2 solo

Eb|--15--15--15--14--14--14--14--12--12--12--12--10--10--10--10--9--9--9--9----------------------------------------------
Bb|--------------------------------------------------------------------------12--12--12--12--10--10--10--10--8--8--8--8--
Gb|--12--12--12--11--11--11--11--9---9---9---9---7---7---7---7---6--6--6--6----------------------------------------------
Db|--------------------------------------------------------------------------9---9---9---9---7---7---7---7---5--5--5--5--
Ab|----------------------------------------------------------------------------------------------------------------------
Eb|----------------------------------------------------------------------------------------------------------------------

Guitar 2 solo

Eb|--7---7---10--10--12--12--12--12--12--------------------------------------
Bb|--10--10--13--13--15--15--15--15--15--12--15--14--15--14--12--------------
Gb|--------------------------------------------------------------14--12------
Db|----------------------------------------------------------------------14--
Ab|--------------------------------------------------------------------------
Eb|--------------------------------------------------------------------------

							http://www.guitartabcreator.com
Chords

Instruments
{"strings":[[[".",".",".",".",".",".",".",".",".",".",".",".",".",".",".",".",".",".",".",".",".",".","."],[".",".",".",".",".",".",".",".",".",".",".",".",".",".",".",".",".",".",".",".",".",".","."],[".",".",".",".",".",".",".",".",".",".",".",".",".",".",".",".",".",".",".",".",".",".","."],[".",".",".",".",".",".",".",".",".",".",".",".",".",".",".",".",".",".",".",".",".",".","."],[".",".",".",5,7,".",".",".",".",".",".",".",".",5,7,".",".",".",5,".",".",".","."],[0,0,0,".",".",0,0,0,5,3,0,0,0,".",".",5,6,7,".",7,6,5,3]],[[".",".",".",".",".",".",".",".",".",".",".",".",".",".",".",".",".",".",10,".",".",".","."],[5,5,5,15,17,5,5,5,10,8,5,5,5,15,17,10,11,12,".",12,11,10,8],[".",".",".",".",".",".",".",".",".",".",".",".",".",".",".",".",".",".",".",".",".",".","."],[".",".",".",".",".",".",".",".",".",".",".",".",".",".",".",".",".",".",".",".",".",".","."],[".",".",".",".",".",".",".",".",".",".",".",".",".",".",".",".",".",".",".",".",".",".","."],[".",".",".",".",".",".",".",".",".",".",".",".",".",".",".",".",".",".",".",".",".",".","."]],[[".",".",".",".",".",".",".",".",".",".",".",".",".",".",".","."],[".",".",".",".",".",".",".",".",".",".",".",".",".",".",".","."],[".",".",".",".",".",".",".",".",".",".",".",".",".",".",".","."],[5,5,5,5,5,5,5,5,7,7,7,7,7,7,7,7],[5,5,5,5,5,5,5,5,7,7,7,7,7,7,7,7],[3,3,3,3,3,3,3,3,5,5,5,5,5,5,5,5]],[[".",".",".",".",".",".",".",".",".",".",".",".",".",".",".","."],[5,5,5,5,5,5,5,5,5,5,5,5,5,5,5,5],[".",".",".",".",".",".",".",".",".",".",".",".",".",".",".","."],[".",".",".",".",".",".",".",".",".",".",".",".",".",".",".","."],[".",".",".",".",".",".",".",".",".",".",".",".",".",".",".","."],[".",".",".",".",".",".",".",".",".",".",".",".",".",".",".","."]],[[".",".",".",".",".",".",".",".",".",".",".",".",".",".",".",".",".","_",".","."],[".",".",".",".",".",".",".",".",".",".",".",".",".",".",".",".",".","_",".","."],[".",".",".",".",".",".",".",".",".",".",".",".",".",".",".",".",".","_",7,"."],[5,5,5,5,5,5,5,5,7,7,7,7,7,7,7,7,0,"_",7,7],[5,5,5,5,5,5,5,5,7,7,7,7,7,7,7,7,0,"_",5,7],[3,3,3,3,3,3,3,3,5,5,5,5,5,5,5,5,0,"_",".",5]],[[".",".",".",".",".",".",".",".",".",".",".",".",".",".",".",".",".","_",".","."],[5,5,5,5,7,7,7,7,8,8,8,8,10,10,10,10,5,"_",".","."],[".",".",".",".",".",".",".",".",".",".",".",".",".",".",".",".",".","_",7,"."],[".",".",".",".",".",".",".",".",".",".",".",".",".",".",".",".",".","_",7,7],[".",".",".",".",".",".",".",".",".",".",".",".",".",".",".",".",".","_",5,7],[".",".",".",".",".",".",".",".",".",".",".",".",".",".",".",".",".","_",".",5]],[[".",".","_",".",".","_",".",".","_",".",".","_",".",".",".","."],[".",".","_",".",".","_",".",".","_",".",".","_",".",".",".","."],[".",".","_",".",".","_",".",".","_",".",".","_",".",".",".","."],[0,0,"_",0,0,"_",5,7,"_",0,0,"_",0,5,5,7],[0,0,"_",0,0,"_",5,7,"_",0,0,"_",0,5,5,7],[0,0,"_",0,0,"_",3,5,"_",0,0,"_",0,3,3,5]],[[".",".",".",15,".",".",".",14,".",".",".",".",".",".",".",".",".",".",".",".",".",".",".",".",".",".",".",".",".",".",".",".",".",".","."],[12,15,12,".",12,15,12,".",12,15,12,12,"b",14,15,12,".",12,15,12,12,"b",14,15,12,".",".",".",".",".",".",".",".",".","."],[".",".",".",".",".",".",".",".",".",".",".",".",".",".",".",".",12,".",".",".",".",".",".",".",".",12,12,14,12,12,"b",14,14,12,"."],[".",".",".",".",".",".",".",".",".",".",".",".",".",".",".",".",".",".",".",".",".",".",".",".",".",".",".",".",".",".",".",".",".",".",14],[".",".",".",".",".",".",".",".",".",".",".",".",".",".",".",".",".",".",".",".",".",".",".",".",".",".",".",".",".",".",".",".",".",".","."],[".",".",".",".",".",".",".",".",".",".",".",".",".",".",".",".",".",".",".",".",".",".",".",".",".",".",".",".",".",".",".",".",".",".","."]],[[".",".",".",".",".",".",".",".",".",".",".",14,".",".",".",15,15,14,12,".",".",".",".",".",".",".",".",".",".",".","."],[".",".",".",15,".",".",".",14,".",".",".",".",".",".",".",".",".",".",".",15,14,12,".",".",".",".",14,14,".",".","."],[12,14,12,".",12,14,12,".",12,14,12,".",12,14,12,".",".",".",".",".",".",".",15,14,12,".",14,14,".",12,14],[".",".",".",".",".",".",".",".",".",".",".",".",".",".",".",".",".",".",".",".",".",".",".",".",".",14,".",".",14,".","."],[".",".",".",".",".",".",".",".",".",".",".",".",".",".",".",".",".",".",".",".",".",".",".",".",".",".",".",".",".",".","."],[".",".",".",".",".",".",".",".",".",".",".",".",".",".",".",".",".",".",".",".",".",".",".",".",".",".",".",".",".",".","."]],[[".",".",".",".",".",".",".",".",".",".",".",".",".",".",".",".",".",".",".",".",".",".",".",12,".",".",".","."],[".",".",".",".",".",".",".",".",".",".",".",".",".",".",".",".",".",11,".",11,15,12,15,".",15,15,15,"b"],[14,12,14,14,12,11,12,14,".",".",".",".",".",".",11,12,14,".",14,".",".",".",".",".",".",".",".","."],[".",".",".",".",".",".",".",".",11,12,14,11,12,14,".",".",".",".",".",".",".",".",".",".",".",".",".","."],[".",".",".",".",".",".",".",".",".",".",".",".",".",".",".",".",".",".",".",".",".",".",".",".",".",".",".","."],[".",".",".",".",".",".",".",".",".",".",".",".",".",".",".",".",".",".",".",".",".",".",".",".",".",".",".","."]],[[15,15,15,14,14,14,14,12,12,12,12,10,10,10,10,9,9,9,9,".",".",".",".",".",".",".",".",".",".",".","."],[".",".",".",".",".",".",".",".",".",".",".",".",".",".",".",".",".",".",".",12,12,12,12,10,10,10,10,8,8,8,8],[12,12,12,11,11,11,11,9,9,9,9,7,7,7,7,6,6,6,6,".",".",".",".",".",".",".",".",".",".",".","."],[".",".",".",".",".",".",".",".",".",".",".",".",".",".",".",".",".",".",".",9,9,9,9,7,7,7,7,5,5,5,5],[".",".",".",".",".",".",".",".",".",".",".",".",".",".",".",".",".",".",".",".",".",".",".",".",".",".",".",".",".",".","."],[".",".",".",".",".",".",".",".",".",".",".",".",".",".",".",".",".",".",".",".",".",".",".",".",".",".",".",".",".",".","."]],[[7,7,10,10,12,12,12,12,12,".",".",".",".",".",".",".",".","."],[10,10,13,13,15,15,15,15,15,12,15,14,15,14,12,".",".","."],[".",".",".",".",".",".",".",".",".",".",".",".",".",".",".",14,12,"."],[".",".",".",".",".",".",".",".",".",".",".",".",".",".",".",".",".",14],[".",".",".",".",".",".",".",".",".",".",".",".",".",".",".",".",".","."],[".",".",".",".",".",".",".",".",".",".",".",".",".",".",".",".",".","."]]],"numberofstrings":6,"notes":["DsEb","AsBb","FsGb","CsDb","GsAb","DsEb"],"capo":0,"stringnotes":["Eb3","Bb2","Gb2","Db2","Ab1","Eb1"],"comments":["Guitar 1 verse/chorus","Guitar 2 verse / chorus","Guitar 1","Guitar 2","Guitar 1","Guitar 2","Guitar 1 bridge / solo section","Guitar 2 solo","Guitar 2 solo","Guitar 2 solo","Guitar 2 solo","Guitar 2 solo"],"timing":[["W","W","W","W","W","W","W","W","W","W","W","W","W","W","W","W","W","W","W","W","W","W","W"],["W","W","W","W","W","W","W","W","W","W","W","W","W","W","W","W","W","W","W","W","W","W","W"],["W","W","W","W","W","W","W","W","W","W","W","W","W","W","W","W"],["W","W","W","W","W","W","W","W","W","W","W","W","W","W","W","W"],["W","W","W","W","W","W","W","W","W","W","W","W","W","W","W","W","W","W","W","W"],["W","W","W","W","W","W","W","W","W","W","W","W","W","W","W","W","W","W","W","W","W","W","W"],["W","W","W","W","W","W","W","W","W","W","W","W","W","W","W","W"],["W","W","W","W","W","W","W","W","W","W","W","W","W","W","W","W","W","W","W","W","W",null,"W","W","W","W","W","W","W","W",null,"W","W","W","W"],["W","W","W","W","W","W","W","W","W","W","W","W","W","W","W","W","W","W","W","W","W","W","W","W","W","W","W","W","W","W","W"],["W","W","W","W","W","W","W","W","W","W","W","W","W","W","W","W","W","W","W","W","W","W","W","W","W","W","W"],["W","W","W","W","W","W","W","W","W","W","W","W","W","W","W","W","W","W","W","W","W","W","W","W","W","W","W","W","W","W","W"],["W","W","W","W","W","W","W","W","W","W","W","W","W","W","W","W","W","W"]],"timingvisible":false,"tabcounter":18,"stave":11,"totalstaves":12,"instrument":"6guitar","selectedtuning":"Half Step Down","version":"13"}

Member for

7 months 3 weeks
Submitted by synerlogic on Fri, 2020-06-12 08:05