CD solo

01234567891011121314151617181920212223
E
B
G
D
A
E
B
0 1 2 3 4 5 6 7 8 9 10 11 12 13 14 15 16 17 18 19 20 21 22 23
(/) Slide Up  (\) Slide Down  (h) Hammer On  (p) Pull Off  (b) Bend (r) Release (v) Vibrato

Stave 1: Measure 1 - 3

E|----------12----------------14------------------------------------19-20-22---22-22-22-------------|-|-|-|-|-|-|-
B|-12-13-15----15-13-14-15-17----17-15---15-17-19-17-19-20-19-20-22---------------------------------|-|-|-|-|-|-|-
G|--------------------------------------------------------------------------------------------------|-|-|-|-|-|-|-
D|--------------------------------------------------------------------------------------------------|-|-|-|-|-|-|-
A|--------------------------------------------------------------------------------------------------|-|-|-|-|-|-|-
E|--------------------------------------------------------------------------------------------------|-|-|-|-|-|-|-

Stave 2: Measure 4 - 6

E|-22-22---22-19---22-20-19\17-21-19-17\15-19-17-15\14-17-15-14\12---15p14-12---------------------
B|----------------------------------------------------------------------------15p12-15p12---------
G|----------------------------------------------------------------------------------------14-12b--
D|------------------------------------------------------------------------------------------------
A|------------------------------------------------------------------------------------------------
E|------------------------------------------------------------------------------------------------

Stave 3:

E|----------------------------------------------------------------------------------
B|-15---15-12----12-15---15---15-12------------12-15p12-15p12----12-15p12-15p12-----
G|-14---14-12----12-14---14---14-12----12-14------------------14--------------------
D|------------14--------------------14----------------------------------------------
A|----------------------------------------------------------------------------------
E|----------------------------------------------------------------------------------

Stave 4:

E|------------------------12---
B|----12---15p12-15-15b15b-----
G|-14--------------------------
D|-----------------------------
A|-----------------------------
E|-----------------------------

							http://www.guitartabcreator.com
Chords

Instruments
{"strings":[[[".","_","_",12,"_","_","_","_","_",14,"_","_","_","_","_","_","_","_","_","_","_","_",19,20,22,"_",22,22,22,"_","_","_","_","_","_","|","|","|","|","|","|","|"],[12,13,15,"_",15,13,14,15,17,"_",17,15,"_",15,17,19,17,19,20,19,20,22,"_","_","_","_","_","_","_","_","_","_","_","_","_","|","|","|","|","|","|","|"],[".","_","_","_","_","_","_","_","_","_","_","_","_","_","_","_","_","_","_","_","_","_","_","_","_","_","_","_","_","_","_","_","_","_","_","|","|","|","|","|","|","|"],[".","_","_","_","_","_","_","_","_","_","_","_","_","_","_","_","_","_","_","_","_","_","_","_","_","_","_","_","_","_","_","_","_","_","_","|","|","|","|","|","|","|"],[".","_","_","_","_","_","_","_","_","_","_","_","_","_","_","_","_","_","_","_","_","_","_","_","_","_","_","_","_","_","_","_","_","_","_","|","|","|","|","|","|","|"],[".","_","_","_","_","_","_","_","_","_","_","_","_","_","_","_","_","_","_","_","_","_","_","_","_","_","_","_","_","_","_","_","_","_","_","|","|","|","|","|","|","|"]],[[22,22,"_",22,19,"_",22,20,19,"\\",17,21,19,17,"\\",15,19,17,15,"\\",14,17,15,14,"\\",12,"_",15,"p",14,12,"_","_","_","_","_","_","_","_","_","_"],[".","_","_","_","_","_","_","_","_","_","_","_","_","_","_","_","_","_","_","_","_","_","_","_","_","_","_","_","_","_","_",15,"p",12,15,"p",12,"_","_","_","_"],[".","_","_","_","_","_","_","_","_","_","_","_","_","_","_","_","_","_","_","_","_","_","_","_","_","_","_","_","_","_","_","_","_","_","_","_","_",14,12,"b","_"],[".","_","_","_","_","_","_","_","_","_","_","_","_","_","_","_","_","_","_","_","_","_","_","_","_","_","_","_","_","_","_","_","_","_","_","_","_","_","_","_","_"],[".","_","_","_","_","_","_","_","_","_","_","_","_","_","_","_","_","_","_","_","_","_","_","_","_","_","_","_","_","_","_","_","_","_","_","_","_","_","_","_","_"],[".","_","_","_","_","_","_","_","_","_","_","_","_","_","_","_","_","_","_","_","_","_","_","_","_","_","_","_","_","_","_","_","_","_","_","_","_","_","_","_","_"]],[[".","_","_","_","_","_","_","_","_","_","_","_","_","_","_","_","_","_","_","_","_","_","_","_","_","_","_","_","_","_","_","_","_"],[15,"_",15,12,"_",12,15,"_",15,"_",15,12,"_","_","_","_",12,15,"p",12,15,"p",12,"_",12,15,"p",12,15,"p",12,"_","_"],[14,"_",14,12,"_",12,14,"_",14,"_",14,12,"_",12,14,"_","_","_","_","_","_","_","_",14,"_","_","_","_","_","_","_","_","_"],[".","_","_","_",14,"_","_","_","_","_","_","_",14,"_","_","_","_","_","_","_","_","_","_","_","_","_","_","_","_","_","_","_","_"],[".","_","_","_","_","_","_","_","_","_","_","_","_","_","_","_","_","_","_","_","_","_","_","_","_","_","_","_","_","_","_","_","_"],[".","_","_","_","_","_","_","_","_","_","_","_","_","_","_","_","_","_","_","_","_","_","_","_","_","_","_","_","_","_","_","_","_"]],[[".","_","_","_","_","_","_","_","_","_","_",12,"_"],[".",12,"_",15,"p",12,15,15,"b",15,"b","_","_"],[14,"_","_","_","_","_","_","_","_","_","_","_","_"],[".","_","_","_","_","_","_","_","_","_","_","_","_"],[".","_","_","_","_","_","_","_","_","_","_","_","_"],[".","_","_","_","_","_","_","_","_","_","_","_","_"]]],"numberofstrings":6,"notes":["E","B","G","D","A","E","B"],"capo":0,"stringnotes":["E4","B3","G3","D3","A2","E2"],"comments":["Stave 1: Measure 1 - 3","Stave 2: Measure 4 - 6","Stave 3:","Stave 4:"],"timing":[["W","W","W","W","W","W","W","W","W","W","W","W","W","W","W","W","W","W","W","W","W","W","W","W","W","W","W","W","W","W","W","W","W","W","W","W",null,null,null,null,null,null,"W"],["W","W","W","W","W","W","W","W","W","W","W","W","W","W","W","W","W","W","W","W","W","W","W","W","W","W","W","W","W","W","W","W","W","W","W","W","W","W","W","W","W"],["W","W","W","W","W","W","W","W","W","W","W","W","W","W","W","W","W","W","W","W","W","W","W","W","W","W","W","W","W","W","W","W","W","W"],["W","W","W","W","W","W","W","W","W","W","W","W","W"]],"timingvisible":false,"tabcounter":41,"stave":1,"totalstaves":4,"instrument":"6guitar","selectedtuning":"6_standard","version":"13"}

Member for

2 years 2 months
About Me
Metal Guitarist wannabe
Submitted by Syed Huq on Wed, 2021-08-04 17:07