Sound will begin in 5 seconds

Hydrocity Zone Act 2

01234567891011121314151617181920212223
E
B
G
D
A
E
B
0 1 2 3 4 5 6 7 8 9 10 11 12 13 14 15 16 17 18 19 20 21 22 23
(/) Slide Up  (\) Slide Down  (h) Hammer On  (p) Pull Off  (b) Bend (r) Release (v) Vibrato

Stave 1:

E|--15--18--20--15-------------------------------------
B|-----------------------------------------11--11--10--
G|---------------------12--11--10----------------------
D|---------------------------------13--10--------------
A|-----------------------------------------------------
E|-----------------------------------------------------

Stave 2:

E|--------------------------------------------------
B|------11--13----------------------------------13--
G|--12----------12--12--11--10----------12--12------
D|------------------------------13--10--------------
A|--------------------------------------------------
E|--------------------------------------------------

Stave 3:

E|------------------------------15-----11--13--15------15-----13--11--10------
B|------------------15--16--18---------------------13---------------------11--
G|----------15--17------------------------------------------------------------
D|--15--17--------------------------------------------------------------------
A|----------------------------------------------------------------------------
E|----------------------------------------------------------------------------

Stave 4:

E|-----10--11--13------13-----11--10---------10--11--13--
B|-----------------11-----------------13-----------------
G|-------------------------------------------------------
D|-------------------------------------------------------
A|-------------------------------------------------------
E|-------------------------------------------------------

Stave 5:

E|--11--13--15------15-----13--11--10--11-----11--13--15------15------11-----11--13--15--13--
B|--------------13----------------------------------------13------13-------------------------
G|-------------------------------------------------------------------------------------------
D|-------------------------------------------------------------------------------------------
A|-------------------------------------------------------------------------------------------
E|-------------------------------------------------------------------------------------------

Stave 6:

E|-------------------------13------------------------------
B|--13--15--16-----13--16------15--13--11------------------
G|-----------------------------------------12--12--10--12--
D|---------------------------------------------------------
A|---------------------------------------------------------
E|---------------------------------------------------------

Stave 7:

E|-------------------------13------------------------------13--
B|--13--15--16-----13--16------15--13--12--13--15--16--16------
G|-------------------------------------------------------------
D|-------------------------------------------------------------
A|-------------------------------------------------------------
E|-------------------------------------------------------------

Stave 8:

E|--------------13------15-----20--20--19--18--
B|--13--15--16------16-------------------------
G|---------------------------------------------
D|---------------------------------------------
A|---------------------------------------------
E|---------------------------------------------

http://www.guitartabcreator.com
Guitar Tab Creator is intended to store guitar tab created through the tool. It currently does not support in-line text editing. Any text you place in here will be lost. If you need to comment on your tab, please use the "Tab Notes" section located below.