Sound will begin in 5 seconds

violet moon

Chords
01234567891011121314151617181920212223
E
B
G
D
A
E
B
0 1 2 3 4 5 6 7 8 9 10 11 12 13 14 15 16 17 18 19 20 21 22 23
(/) Slide Up  (\) Slide Down  (h) Hammer On  (p) Pull Off  (b) Bend (r) Release (v) Vibrato

Stave 1:

E|--0--0--0--0--0--0--0-----0--0--5--0--0--0---0---8---------
B|--0--1--0--3--3--3--3-----0--5--5--5--0--0---8---8---------
G|--0--0--0--0--0--0--0-----0--0--0--0--0--0---0---0---------
D|--2--2--2--4--0--0--0--6--0--0--0--0--0--0---0---0---5--7--
A|--2--3--2--5--4--5--4--4--7--7--7--7--7--9---9---9---5--7--
E|--0--0--0--0--5--6--5--0--8--8--8--8--8--10--10--10--3--5--

Stave 2:

E|--0--0-----------------------
B|--0--0-----------0-----------
G|--0--0-----0--------------0--
D|--2--2--------------2--------
A|--2--3--3-----3--------3-----
E|--0--0-----------------------

Stave 3:

E|--0--0--0--0--0--
B|--5--0--0--0--0--
G|--0--0--0--0--0--
D|--0--7--7--7--7--
A|--7--7--7--7--7--
E|--8--5--7--0--5--

Stave 4:

E|--0--------------
B|--6--------------
G|--0--------------
D|--0--5--4--4--4--
A|--7--5--4--4--4--
E|--8--3--2--3--2--

http://www.guitartabcreator.com
Guitar Tab Creator is intended to store guitar tab created through the tool. It currently does not support in-line text editing. Any text you place in here will be lost. If you need to comment on your tab, please use the "Tab Notes" section located below.