Morgan

01234567891011121314151617181920212223
E
B
G
D
A
E
B
0 1 2 3 4 5 6 7 8 9 10 11 12 13 14 15 16 17 18 19 20 21 22 23
Stave 1:

E|-------0-------0-------0-------0-
B|---2-------2-------2-------2-----
G|-----2-------2-------2-------2---
D|-0-------0-------0-------0-------
A|---------------------------------
E|---------------------------------

Stave 2:

E|-----0-----0-----0-----0-----
B|-2-----------2---------------
G|---2---2-------2---2-----2---
D|---------0-----------0-------
A|-0-----------0---------------
E|-----------------------------

Stave 3:

E|----------------------------------0---------0---------0---------
B|----2---2-----2---2-----2-------2---2-----2---2-----2---2-------
G|-2---2---2-2---2---2-2---2---2-------2-2-------2-2-------2---2-
D|----------------------------0-------------------------------0---
A|----------------------------------------------------------------
E|----------------------------------------------------------------

Stave 4:

E|-----0-------0-------0-------0---
B|-2---------------2---------------
G|---2---2---2---2---2---2---2---2-
D|---------0---------------0-------
A|-0---------------0---------------
E|---------------------------------

Stave 5:

E|-----0------------------
B|-2--------2---------2---
G|-----2--------2---2-----
D|----------0-------------
A|-0------------0-------0-
E|------------------------
					
Chords

Instruments
{"strings":[[[],[],[],[],[],[]]],"numberofstrings":6,"notes":["E","B","G","D","A","E","B"],"capo":0,"stringnotes":["E4","B3","G3","D3","A2","E2"],"comments":["Stave 1:"],"timing":[[]],"timingvisible":false,"tabcounter":0,"stave":0,"totalstaves":1,"instrument":"6guitar","selectedtuning":"6_standard","version":"13"}

Member for

1 month 1 week
Submitted by sveden on Tue, 2021-01-26 17:25