Sound will begin in 5 seconds

first

01234567891011121314151617181920212223
E
B
G
D
A
E
B
0 1 2 3 4 5 6 7 8 9 10 11 12 13 14 15 16 17 18 19 20 21 22 23
Song Science #1: How Pros Use 6 Chords to Write Hit Songs
(/) Slide Up  (\) Slide Down  (h) Hammer On  (p) Pull Off  (b) Bend (r) Release (v) Vibrato

Stave 1:

E|-----------------------
B|-----------------------
G|-----------------------
D|-----------------5--7--
A|--3-----------5--------
E|-----3--0--5-----------

Stave 2:

E|-----------------------
B|-----------------------
G|-----------------------
D|-----------------------
A|--3-----------5--------
E|-----3--0--5-----8--7--

Stave 3:

E|-----------------------------
B|-----------------------------
G|-----------------------------
D|-----------------5--7--------
A|--3-----------5--------------
E|-----3--0--5-----------8--7--

Stave 4:

E|---------------------------
B|---------------------------
G|---------------------------
D|-----------------5--10--9--
A|--3-----------5------------
E|-----3--0--5---------------

Stave 5:

E|------------------------------------------------------------------------
B|------------------------------------------------------------------------
G|--------------------15--14----------------------------------------------
D|----------------------------15--14----------------------------------14--
A|--3-----------5--0------------------15--14----------------------15------
E|-----3--0--5--------------------------------18--17--12--15--13----------

Stave 6:

E|----------------------------------------------------------------------
B|----------------------------------------------------------------------
G|--------------------------------------------------15--17--14--17--15--
D|----------------------------------14--15--12--14----------------------
A|----------------------15------15--------------------------------------
E|--18--17--12--15--13------13------------------------------------------

Stave 7:

E|------------------------------------------------------------
B|------------------------------------------------------------
G|----------------------15--14--17--15--12--10--7--10--12-----
D|------14--15--12--14----------------------------------------
A|--15--------------------------------------------------------
E|------------------------------------------------------------

http://www.guitartabcreator.com
Guitar Tab Creator is intended to store guitar tab created through the tool. It currently does not support in-line text editing. Any text you place in here will be lost. If you need to comment on your tab, please use the "Tab Notes" section located below.