test2

Chords

01234567891011121314151617181920212223
E
B
G
D
A
E
B
0 1 2 3 4 5 6 7 8 9 10 11 12 13 14 15 16 17 18 19 20 21 22 23
(/) Slide Up  (\) Slide Down  (h) Hammer On  (p) Pull Off  (b) Bend (r) Release (v) Vibrato

Stave 1:

E|-----------------------------------------------------------------------------------------------------------
B|-----------------------------------------------------------------------------------------------------------
G|-----------------------------------------------------------------------------------------------------------
D|-----------0-----3-----------------1--4--1-----3--0--------------------0-----3-----------------0--3--------
A|--0--2--3--------------0--3-----2--------------------2--------0--2--3--------------0--3-----1--------1-----
E|--------------------1-----------------------------------4-----------------------1--------------------------

Stave 2:

E|--------------------------------------------------------------------------------------------------------
B|--------------------------------------------------------------------------------------------------------
G|--------------------------------------------------------------------------------------------------------
D|--------------------------------------------------------------------------------0--4--0-----------------
A|--------2--------------2--------3--2-----------0--2--3--0--------0--3--------2-----------------2--5--2--
E|--0--4-----4-----0--4-----4-----------4--0--------------------1--------1--------------------3-----------

Stave 3:

E|-----------------------------------------------
B|-----------------------------------------------
G|-----------------------------------------------
D|-----0--4--0-----------------------------------
A|--2--------------------2--------------5--3--0--
E|-----------------0--4-----4-----5--0-----------

							http://www.guitartabcreator.com
Instruments
{"title":"test2","strings":[[[".",".",".",".","_",".",".",".",".","_",".",".",".",".",".",".",".",".",".",".",".",".",".",".",".",".",".",".",".",".",".",".",".",".","."],[".",".",".",".","_",".",".",".",".","_",".",".",".",".",".",".",".",".",".",".",".",".",".",".",".",".",".",".",".",".",".",".",".",".","."],[".",".",".",".","_",".",".",".",".","_",".",".",".",".",".",".",".",".",".",".",".",".",".",".",".",".",".",".",".",".",".",".",".",".","."],[".",".",".",0,"_",3,".",".",".","_",".",1,4,1,".",3,0,".",".",".",".",".",".",0,".",3,".",".",".",".",".",0,3,".","."],[0,2,3,".","_",".",".",0,3,"_",2,".",".",".",".",".",".",2,".",".",0,2,3,".",".",".",".",0,3,".",1,".",".",1,"."],[".",".",".",".","_",".",1,".",".","_",".",".",".",".",".",".",".",".",4,".",".",".",".",".",".",".",1,".",".",".",".",".",".",".","."]],[[".",".",".",".",".",".",".",".",".",".",".",".",".",".",".",".",".",".",".",".",".",".",".",".",".",".",".",".",".",".",".",".",".","."],[".",".",".",".",".",".",".",".",".",".",".",".",".",".",".",".",".",".",".",".",".",".",".",".",".",".",".",".",".",".",".",".",".","."],[".",".",".",".",".",".",".",".",".",".",".",".",".",".",".",".",".",".",".",".",".",".",".",".",".",".",".",".",".",".",".",".",".","."],[".",".",".",".",".",".",".",".",".",".",".",".",".",".",".",".",".",".",".",".",".",".",".",".",".",".",0,4,0,".",".",".",".","."],[".",".",2,".",".",".",".",2,".",".",3,2,".",".",".",0,2,3,0,".",".",0,3,".",".",2,".",".",".",".",".",2,5,2],[0,4,".",4,".",0,4,".",4,".",".",".",4,0,".",".",".",".",".",".",1,".",".",1,".",".",".",".",".",".",3,".",".","."]],[[".",".",".",".",".",".",".",".",".",".",".",".",".",".","."],[".",".",".",".",".",".",".",".",".",".",".",".",".",".","."],[".",".",".",".",".",".",".",".",".",".",".",".",".",".","."],[".",0,4,0,".",".",".",".",".",".",".",".",".",".","."],[2,".",".",".",".",".",".",2,".",".",".",".",5,3,0],[".",".",".",".",".",0,4,".",4,".",5,0,".",".","."]]],"numberofstrings":6,"notes":["E","B","G","D","A","E","B"],"capo":0,"stringnotes":["E4","B3","G3","D3","A2","E2"],"comments":["Stave 1:","Stave 2:","Stave 3:"],"timing":[["W","W","W","W",null,"W","W","W","W","W","W","W","W","W","W",null,"W","W","W","W",null,"W","W","W","W","W","W","W","W","W",null,"W","W","W","W"],[null,"W","W","W","W",null,"W","W","W","W",null,"W","W","W","W",null,"W","W","W","W",null,"W","W","W","W",null,"W","W","W","W",null,"W","W","W","W"],[null,"W","W","W","W",null,"W","W","W","W","W","W","W","W","W","W"]],"timingvisible":false,"tabcounter":15,"stave":2,"totalstaves":3,"instrument":"6guitar","selectedtuning":"6_standard","version":"13"}

Member for

1 year 1 month
Submitted by surfjohnstevens on Wed, 2019-09-25 16:57