Sound will begin in 5 seconds

Daya Hide Away

Chords
01234567891011121314151617181920212223
E
B
G
D
A
E
B
0 1 2 3 4 5 6 7 8 9 10 11 12 13 14 15 16 17 18 19 20 21 22 23
Song Science #1: How Pros Use 6 Chords to Write Hit Songs
(/) Slide Up  (\) Slide Down  (h) Hammer On  (p) Pull Off  (b) Bend (r) Release (v) Vibrato

Stave 1:

E|--------------------------------------------------------
B|--7--7--7--7--7-----8--8--8-----------------------------
G|--7--7--7--7--7-----9--9--9-----7--7--7--7--7--7--7--7--
D|--------------------------------9--9--9--9--9--9--9--9--
A|--------------------------------------------------------
E|--------------------------------------------------------

Stave 2:

E|--2--2--2--2--2--2--------3--3-----2--2--2--2--2--2--2--2--
B|--3--3--3--3--3--3--------0--0-----3--3--3--3--3--3--3--3--
G|--4--4--4--4--4--4--------0--0-----2--2--2--2--2--2--2--2--
D|--4--4--4--4--4--4--------0--0-----0--0--0--0--0--0--0--0--
A|--2--2--2--2--2--2--------2--2-----x--x--x--x--x--x--x--x--
E|--x--x--x--x--x--x--------3--3-----x--x--x--x--x--x--x--x--

Stave 3:

E|--2-----0-----3-----2--
B|--3-----2-----0-----3--
G|--4-----2-----0-----2--
D|--4-----2-----0-----0--
A|--2-----0-----2-----x--
E|--x-----x-----3-----x--

http://www.guitartabcreator.com
Guitar Tab Creator is intended to store guitar tab created through the tool. It currently does not support in-line text editing. Any text you place in here will be lost. If you need to comment on your tab, please use the "Tab Notes" section located below.