Sound will begin in 5 seconds

betrayal

Chords
01234567891011121314151617181920212223
E
B
G
D
A
E
B
0 1 2 3 4 5 6 7 8 9 10 11 12 13 14 15 16 17 18 19 20 21 22 23
Song Science #1: How Pros Use 6 Chords to Write Hit Songs
(/) Slide Up  (\) Slide Down  (h) Hammer On  (p) Pull Off  (b) Bend (r) Release (v) Vibrato

Stave 1:

E|-----2-----2-----0-----4--
B|-----2-----3-----2-----5--
G|-----2-----2-----2-----6--
D|-----4-----0-----2-----6--
A|-----4-----x-----0-----4--
E|-----2-----x-----x-----x--

Stave 2:

E|--2-----2-----0--
B|--3-----3-----0--
G|--4-----2-----1--
D|--4-----0-----2--
A|--2-----x-----2--
E|--x-----x-----0--

Stave 3:

E|--0-----4-----x-----0--
B|--2-----5-----7-----2--
G|--2-----6-----7-----2--
D|--2-----6-----7-----2--
A|--0-----4-----5-----0--
E|--x-----x-----x-----x--

Stave 4:

E|--2-----4-----2-----0--
B|--2-----5-----3-----0--
G|--2-----6-----4-----1--
D|--4-----6-----4-----2--
A|--4-----4-----2-----2--
E|--2-----------------0--

Stave 5:

E|--0-----4-----5-----7--
B|--2-----5-----7-----9--
G|--2-----6-----7-----9--
D|--2-----6-----7-----9--
A|--0-----4-----5-----7--
E|--x-----x-----x-----0--

http://www.guitartabcreator.com
Guitar Tab Creator is intended to store guitar tab created through the tool. It currently does not support in-line text editing. Any text you place in here will be lost. If you need to comment on your tab, please use the "Tab Notes" section located below.