Sound will begin in 5 seconds

dyna

Chords
01234567891011121314151617181920212223
E
B
G
D
A
E
B
0 1 2 3 4 5 6 7 8 9 10 11 12 13 14 15 16 17 18 19 20 21 22 23
Song Science #1: How Pros Use 6 Chords to Write Hit Songs
(/) Slide Up  (\) Slide Down  (h) Hammer On  (p) Pull Off  (b) Bend (r) Release (v) Vibrato

Stave 1:

G|-----------6--9--11-----
D|--------7---------------
A|-----7------------------
E|--5---------------------

Stave 2:

G|-------------6--9--11/14--11--9\6--6h7p6----------------------6--4h6-----------4-----------------7--6--
D|----------7-------------------------------7----------7--6--7----------4v--4h6-----6--4--------7--------
A|-------7------------------------------------------7----------------------------------------7-----------
E|--2/5----------------------------------------2/5----------------------------------------5--------------

Stave 3:

G|----------------4-------------------------------------------------6/11--11--11--11--11--
D|--6--4--4--4h6-----6--4--------7--6--7--6--4-------------7--6--7------------------------
A|----------------------------7-----------------5h7-----7---------------------------------
E|-------------------------5-------------------------5------------------------------------

Stave 4:

G|-----------6--9--11--------14--11--9--6-------------------6--9--11--11/14--12--11\9--11--6--------
D|--------7--------------------------------7--4----------7------------------------------------7--4--
A|-----7----------------------------------------------7---------------------------------------------
E|--5--------------------------------------------2/5------------------------------------------------

Stave 5:

G|---------------------------------------
D|--------------------------------9--11--
A|--7--7--4--4--7--7--4--4--7--9--7--9---
E|--5--5--2--2--5--5--2--2--5--7---------

Stave 6:

G|--14--11--9\6--7--6--------
D|---------------------7--4--
A|---------------------------
E|---------------------------

http://www.guitartabcreator.com
Guitar Tab Creator is intended to store guitar tab created through the tool. It currently does not support in-line text editing. Any text you place in here will be lost. If you need to comment on your tab, please use the "Tab Notes" section located below.