Sound will begin in 5 seconds

A-Song 87 Flat Tuned

01234567891011121314151617181920212223
E
B
G
D
A
E
B
0 1 2 3 4 5 6 7 8 9 10 11 12 13 14 15 16 17 18 19 20 21 22 23
Song Science #1: How Pros Use 6 Chords to Write Hit Songs
(/) Slide Up  (\) Slide Down  (h) Hammer On  (p) Pull Off  (b) Bend (r) Release (v) Vibrato

Stave 1:

E|-------------------------------------------------------------------------------------------
B|--7--8--10--10--5--7--8--8--3--5--7--7--3-----------------8--10--12--15--14--12--10--------
G|-------------------------------------------4--6--7--7--------------------------------7-----
D|-------------------------------------------------------------------------------------------
A|-------------------------------------------------------------------------------------------
E|-------------------------------------------------------0--------------------------------0--

Stave 2:

E|------------------------------------------------------------------------------
B|--10--8--7--10--7--5-----7--8--10--10--5--7--8--8--3--5--7--7--3--------------
G|------------------------------------------------------------------4--6--7--7--
D|------------------------------------------------------------------------------
A|------------------------------------------------------------------------------
E|----------------------0-------------------------------------------------------

Stave 3:

E|------------------------------------------------------------------------------------------------
B|--8--10--12--15--14--12--10--------10--8--7--10--8--12-----12--11--14-----9--11--12--12--11-----
G|-----------------------------7---------------------------------------------------------------6--
D|------------------------------------------------------------------------------------------------
A|------------------------------------------------------------------------------------------------
E|--------------------------------0-----------------------0--------------0------------------------

Stave 4:

E|------------------------------------------------------------------------------------------------------
B|--7--9--12--11--14--12--14--15--15--12--8--5--------7--8--10--10--5--7--8--8--3--5--7--7--3-----------
G|---------------------------------------------------------------------------------------------4--6--7--
D|------------------------------------------------------------------------------------------------------
A|------------------------------------------------------------------------------------------------------
E|----------------------------------------------0--0----------------------------------------------------

Stave 5:

E|--------------------------------------------------------------
B|--8--10--12--15--14--12--10--------10--8--7--10--8--12--------
G|-----------------------------7--------------------------6--7--
D|--------------------------------------------------------------
A|--------------------------------------------------------------
E|--------------------------------0-----------------------------

http://www.guitartabcreator.com
Guitar Tab Creator is intended to store guitar tab created through the tool. It currently does not support in-line text editing. Any text you place in here will be lost. If you need to comment on your tab, please use the "Tab Notes" section located below.