Sound will begin in 5 seconds

A - Song 87

01234567891011121314151617181920212223
E
B
G
D
A
E
B
0 1 2 3 4 5 6 7 8 9 10 11 12 13 14 15 16 17 18 19 20 21 22 23
Song Science #1: How Pros Use 6 Chords to Write Hit Songs
(/) Slide Up  (\) Slide Down  (h) Hammer On  (p) Pull Off  (b) Bend (r) Release (v) Vibrato

Stave 1:

E|-----------------------------------------------------
B|--6--7--9--9--4--6--7--7--2--4--6--6--2--------------
G|-----------------------------------------3--5--6--6--
D|-----------------------------------------------------
A|-----------------------------------------------------
E|-----------------------------------------------------

Stave 2:

E|------------------------------0-----------------------
B|--7--9--11--14--13--11--9-----0-----9--7--6--9--6--4--
G|---------------------------6--0-----------------------
D|------------------------------0-----------------------
A|------------------------------0-----------------------
E|------------------------------0--0--------------------

Stave 3:

E|-----------------------------------------------------
B|--6--7--9--9--4--6--7--7--2--4--6--6--2--------------
G|-----------------------------------------3--5--6--6--
D|-----------------------------------------------------
A|-----------------------------------------------------
E|-----------------------------------------------------

Stave 4:

E|------------------------------0------------------------
B|--7--9--11--14--13--11--9-----0-----9--7--6--9--7--11--
G|---------------------------6--0------------------------
D|------------------------------0------------------------
A|------------------------------0------------------------
E|------------------------------0--0---------------------

Stave 5:

E|-----------------------------------------------------------------------------------------
B|--11--10--13-----8--10--11-----11--10--------6--8--11--10--13--11--13--14--14--11--7--4--
G|---------------------------------------5-------------------------------------------------
D|-----------------------------------------------------------------------------------------
A|-----------------------------------------------------------------------------------------
E|--------------0-------------0-------------0----------------------------------------------

Stave 6:

E|-----------------------------------------------------------
B|--6--7--9--9-----4--6--7--7-----2--4--6--6--2--------------
G|-----------------------------------------------3--5--6--6--
D|-----------------------------------------------------------
A|-----------------------------------------------------------
E|--------------0--------------0-----------------------------

Stave 7:

E|----------------------------------------------------------
B|--7--9--11--14--13--11--9--------9--7--6--9--7--11--------
G|---------------------------6------------------------5--6--
D|----------------------------------------------------------
A|----------------------------------------------------------
E|------------------------------0---------------------------

http://www.guitartabcreator.com
Guitar Tab Creator is intended to store guitar tab created through the tool. It currently does not support in-line text editing. Any text you place in here will be lost. If you need to comment on your tab, please use the "Tab Notes" section located below.