Say It ain't So Lead

Chords

01234567891011121314151617181920212223
E
B
G
D
A
E
B
0 1 2 3 4 5 6 7 8 9 10 11 12 13 14 15 16 17 18 19 20 21 22 23
(/) Slide Up  (\) Slide Down  (h) Hammer On  (p) Pull Off  (b) Bend (r) Release (v) Vibrato

Stave 1:

E|-----14b16b14--12--11------11------------------------
B|-----------------------14------14--14b16b14--12------
G|-------------------------------------------------13--
D|-----------------------------------------------------
A|-----------------------------------------------------
E|-----------------------------------------------------

Stave 2:

E|--14b16b14--12--11------11------------------------
B|--------------------14------14--14b16p12--14b16v--
G|--------------------------------------------------
D|--------------------------------------------------
A|--------------------------------------------------
E|--------------------------------------------------

Stave 3:

E|----------12--16--14h16p14--12---------------------12--16--14--12-------------16b18b16--
B|--12--14------------------------16v--------12--14------------------16v------------------
G|----------------------------------------------------------------------------------------
D|----------------------------------------------------------------------------------------
A|----------------------------------------------------------------------------------------
E|----------------------------------------------------------------------------------------

							http://www.guitartabcreator.com
Tab Notes

Instruments
{"title":"Say It ain't So Lead","strings":[[["_",null,null,null,null,null,null,null,null,14,"b",16,"b",14,12,11,".",11,".",".",".",".",".",".",".","."],["_",null,null,null,null,null,null,null,null,".",".",".",".",".",".",".",14,".",14,14,"b",16,"b",14,12,"."],["_",null,null,null,null,null,null,null,null,".",".",".",".",".",".",".",".",".",".",".",".",".",".",".",".",13],["_",null,null,null,null,null,null,null,null,".",".",".",".",".",".",".",".",".",".",".",".",".",".",".",".","."],["_",null,null,null,null,null,null,null,null,".",".",".",".",".",".",".",".",".",".",".",".",".",".",".",".","."],["_",null,null,null,null,null,null,null,null,".",".",".",".",".",".",".",".",".",".",".",".",".",".",".",".","."]],[[14,"b",16,"b",14,12,11,".",11,".",".",".",".",".",".",".",".",".","."],[".",".",".",".",".",".",".",14,".",14,14,"b",16,"p",12,14,"b",16,"v"],[".",".",".",".",".",".",".",".",".",".",".",".",".",".",".",".",".",".","."],[".",".",".",".",".",".",".",".",".",".",".",".",".",".",".",".",".",".","."],[".",".",".",".",".",".",".",".",".",".",".",".",".",".",".",".",".",".","."],[".",".",".",".",".",".",".",".",".",".",".",".",".",".",".",".",".",".","."]],[[".",".",12,16,14,"h",16,"p",14,12,".",".","_","_",".",".",12,16,14,12,".",".","_","_",16,"b",18,"b",16],[12,14,".",".",".",".",".",".",".",".",16,"v","_","_",12,14,".",".",".",".",16,"v","_","_",".",".",".",".","."],[".",".",".",".",".",".",".",".",".",".",".",".","_","_",".",".",".",".",".",".",".",".","_","_",".",".",".",".","."],[".",".",".",".",".",".",".",".",".",".",".",".","_","_",".",".",".",".",".",".",".",".","_","_",".",".",".",".","."],[".",".",".",".",".",".",".",".",".",".",".",".","_","_",".",".",".",".",".",".",".",".","_","_",".",".",".",".","."],[".",".",".",".",".",".",".",".",".",".",".",".","_","_",".",".",".",".",".",".",".",".","_","_",".",".",".",".","."]]],"numberofstrings":6,"notes":["E","B","G","D","A","E","B"],"capo":0,"stringnotes":["E4","B3","G3","D3","A2","E2"],"comments":["Stave 1:","Stave 2:","Stave 3:"],"timing":[[null,null,null,null,null,null,null,null,null,"W",null,"W",null,"W","W","W","W","W","W","W",null,"W",null,"W","W","W"],["W",null,"W",null,"W","W","W","W","W","W","W",null,"W",null,"W","W",null,"W"],["W","W","W","W","W",null,"W",null,"W","W","W",null,"W","W","W","W","W","W","W","W","W",null,null,null,"W",null,"W",null,"W"]],"timingvisible":false,"tabcounter":29,"stave":2,"totalstaves":3,"instrument":"6guitar","selectedtuning":"6_standard","version":"13"}

Member for

8 years 11 months
Submitted by superlosers on Fri, 2018-08-24 19:55