Refugee - Tom Petty - Riff

Chords

01234567891011121314151617181920212223
E
B
G
D
A
E
B
0 1 2 3 4 5 6 7 8 9 10 11 12 13 14 15 16 17 18 19 20 21 22 23
(/) Slide Up  (\) Slide Down  (h) Hammer On  (p) Pull Off  (b) Bend (r) Release (v) Vibrato

Stave 1:

E|--------------------
B|--------------------
G|-----------2--------
D|--4--------2-----2--
A|--4--------0-----2--
E|--2--2--4--------0--

Stave 2:

E|------------------------------------------------------------2-------
B|---------------------------------------------------------2----------
G|-----------------4b5--------------------------4-----4b5--------5/7--
D|--4-----4--6--7-------2--4-----4-----4--6--7-----7------------------
A|--------------------------------------------------------------------
E|--------------------------------------------------------------------

Stave 3:

E|----------2--2---------------------------------------------------------
B|-------2--------2--5/7--7/9--9/10--10/12--12/14--14/17--17--14--17b19--
G|--4b6------------------------------------------------------------------
D|-----------------------------------------------------------------------
A|-----------------------------------------------------------------------
E|-----------------------------------------------------------------------

							http://www.guitartabcreator.com
Instruments
{"title":"Refugee - Tom Petty - Riff","strings":[[[".",".",".",".","_","."],[".",".",".",".","_","."],[".",".",".",2,"_","."],[4,".",".",2,"_",2],[4,".",".",0,"_",2],[2,2,4,".","_",0]],[[".","_",".",".",".",".",".",".",".",".","_",".","_",".",".",".",".",".",".",".",".",".",2,".",".","."],[".","_",".",".",".",".",".",".",".",".","_",".","_",".",".",".",".",".",".",".",".",2,".",".",".","."],[".","_",".",".",".",4,"b",5,".",".","_",".","_",".",".",".",4,".",4,"b",5,".",".",5,"/",7],[4,"_",4,6,7,".",".",".",2,4,"_",4,"_",4,6,7,".",7,".",".",".",".",".",".",".","."],[".","_",".",".",".",".",".",".",".",".","_",".","_",".",".",".",".",".",".",".",".",".",".",".",".","."],[".","_",".",".",".",".",".",".",".",".","_",".","_",".",".",".",".",".",".",".",".",".",".",".",".","."]],[[".",".",".",".",2,2,".",".",".",".",".",".",".",".",".",".",".",".",".",".",".",".",".",".",".",".",".",".",".","."],[".",".",".",2,".",".",2,5,"/",7,7,"/",9,9,"/",10,10,"/",12,12,"/",14,14,"/",17,17,14,17,"b",19],[4,"b",6,".",".",".",".",".",".",".",".",".",".",".",".",".",".",".",".",".",".",".",".",".",".",".",".",".",".","."],[".",".",".",".",".",".",".",".",".",".",".",".",".",".",".",".",".",".",".",".",".",".",".",".",".",".",".",".",".","."],[".",".",".",".",".",".",".",".",".",".",".",".",".",".",".",".",".",".",".",".",".",".",".",".",".",".",".",".",".","."],[".",".",".",".",".",".",".",".",".",".",".",".",".",".",".",".",".",".",".",".",".",".",".",".",".",".",".",".",".","."]]],"numberofstrings":6,"notes":["E","B","G","D","A","E","B"],"capo":0,"stringnotes":["E4","B3","G3","D3","A2","E2"],"comments":["Stave 1:","Stave 2:","Stave 3:"],"timing":[["W","W","W","W","W","W"],["W","W","W","W","W","W",null,"W","W","W",null,"W","W","W","W","W","W","W","W",null,"W","W","W","W",null,"W"],["W",null,"W","W","W","W","W","W",null,"W","W",null,"W","W",null,"W","W",null,"W","W",null,"W","W",null,"W","W","W","W",null,"W"]],"timingvisible":false,"tabcounter":30,"stave":2,"totalstaves":3,"instrument":"6guitar","selectedtuning":"6_standard","version":"13"}

Member for

8 years 11 months
Submitted by superlosers on Mon, 2018-05-14 14:34