Proud Mary Licks

Chords

01234567891011121314151617181920212223
E
B
G
D
A
E
B
0 1 2 3 4 5 6 7 8 9 10 11 12 13 14 15 16 17 18 19 20 21 22 23
(/) Slide Up  (\) Slide Down  (h) Hammer On  (p) Pull Off  (b) Bend (r) Release (v) Vibrato

Stave 1:

E|--------------------
B|--10--10--10--8--7--
G|--11--11--11--9--7--
D|--------------------
A|--------------------
E|--------------------

Stave 2:

E|---------------------
B|---------------------
G|---------------------
D|-------0--2/4--2--0--
A|--0h2----------------
E|---------------------

							http://www.guitartabcreator.com
{"title":"Proud Mary Licks","strings":[[[".",".",".",".","."],[".",".",".",".","."],[".",".",".",".","."],["11","11","11","9","7"],["10","10","10","8","7"],[".",".",".",".","."]],[[".",".",".",".",".",".",".",".","."],["0","h","2",".",".",".",".",".","."],[".",".",".","0","2","/","4","2","0"],[".",".",".",".",".",".",".",".","."],[".",".",".",".",".",".",".",".","."],[".",".",".",".",".",".",".",".","."]]],"notes":["E","A","D","G","B","E"],"capo":0,"stringnotes":["E2","A2","D3","G3","B3","E4"],"timing":[["W","W","W","W","W"],["W",null,"W","W","W",null,"W","W","W"]],"timingvisible":false,"tabcounter":9,"stave":1,"totalstaves":2,"version":"1.0"}

Member for

8 years 11 months
Submitted by superlosers on Mon, 2014-09-15 23:25