G A# C Song Lay Me Down

Chords

01234567891011121314151617181920212223
E
B
G
D
A
E
B
0 1 2 3 4 5 6 7 8 9 10 11 12 13 14 15 16 17 18 19 20 21 22 23
(/) Slide Up  (\) Slide Down  (h) Hammer On  (p) Pull Off  (b) Bend (r) Release (v) Vibrato

Stave 1:

E|------------------------------------------------------------
B|------------------------------------------------------------
G|--------3b4-----------------------------5b6--3--------------
D|--3--5-------5--3--5--3--5--------3--5----------3--5--3--5--
A|------------------------------------------------------------
E|------------------------------------------------------------

Stave 2:

E|-----------------------------------------------------------
B|-----------------------------------------------------------
G|--5b6--3--------5b6--5--------5b6--------------------------
D|-----------------------------------5--5--5--5--5--5--5--5--
A|-----------------------------------------------------------
E|-----------------------------------------------------------

							http://www.guitartabcreator.com
Tab Notes

Instruments
{"title":"","strings":[[[".",".",".",".",".",".",".",".",".",".","_","_",".",".",".",".",".",".",".",".",".","."],[".",".",".",".",".",".",".",".",".",".","_","_",".",".",".",".",".",".",".",".",".","."],[".",".",3,"b",4,".",".",".",".",".","_","_",".",".",5,"b",6,3,".",".",".","."],[3,5,".",".",".",5,3,5,3,5,"_","_",3,5,".",".",".",".",3,5,3,5],[".",".",".",".",".",".",".",".",".",".","_","_",".",".",".",".",".",".",".",".",".","."],[".",".",".",".",".",".",".",".",".",".","_","_",".",".",".",".",".",".",".",".",".","."]],[[".",".",".",".","_","_",".",".",".",".","_","_",".",".",".",".",".",".",".",".",".",".","."],[".",".",".",".","_","_",".",".",".",".","_","_",".",".",".",".",".",".",".",".",".",".","."],[5,"b",6,3,"_","_",5,"b",6,5,"_","_",5,"b",6,".",".",".",".",".",".",".","."],[".",".",".",".","_","_",".",".",".",".","_","_",".",".",".",5,5,5,5,5,5,5,5],[".",".",".",".","_","_",".",".",".",".","_","_",".",".",".",".",".",".",".",".",".",".","."],[".",".",".",".","_","_",".",".",".",".","_","_",".",".",".",".",".",".",".",".",".",".","."]]],"numberofstrings":6,"notes":["E","B","G","D","A","E","B"],"capo":0,"stringnotes":["E4","B3","G3","D3","A2","E2"],"comments":["Stave 1:","Stave 2:"],"timing":[["W","W","W",null,"W","W","W","W","W","W","W","W","W","W","W","W","W","W","W","W","W","W"],["W",null,"W","W","W",null,"W","W","W","W",null,null,"W",null,"W","W","W","W","W","W","W","W","W","W"]],"timingvisible":false,"tabcounter":23,"stave":1,"totalstaves":2,"instrument":"6guitar","selectedtuning":"6_standard","version":"13"}

Member for

8 years 11 months
Submitted by superlosers on Sat, 2018-03-03 18:30