Dueling Banjo's - Guitar

Chords

01234567891011121314151617181920212223
E
B
G
D
A
E
B
0 1 2 3 4 5 6 7 8 9 10 11 12 13 14 15 16 17 18 19 20 21 22 23
(/) Slide Up  (\) Slide Down  (h) Hammer On  (p) Pull Off  (b) Bend (r) Release (v) Vibrato
E|--3--3--3-----3--0--3--3--3-----3-----------------------------0-----------------------------0--------------------------
B|-----------1-----0-----------1-----0--1--3--0--1-----0--------0--0--1--3--0--1-----0--------0--------------------------
G|-----------------0--------------------------------2-----0--2--0-----------------2-----0--2--0-----0--0--2--5--4--4--2--
D|-----------2-----0-----------2--------------------------------0-----------------------------0--0-----------------------
A|--2--2--2--3--2--0--2--2--2--3--2-----------------------------0-----------------------------0--------------------------
E|--3--3--3-----3--0--3--3--3-----3-----------------------------0-----------------------------0--------------------------



E|-------------------0-------------------0-------------------0-
B|-------------------0---------0-1-3-1-0-0-------------------0-
G|-------------------0-0-0-0-2-----------0-------------3-----0-
D|-------------0-----0-------------------0-------0-2-3---3-2-0-
A|-------0-2-3---3-2-0-------------------0-3-3-3-------------0-
E|-3-3-3-------------0-------------------0-------------------0-



E|--------------0--1--3--1--0--0-----------------------------
B|--1--1--1--3-----------------0-----------------------------
G|-----------------------------0-----------------------------
D|-----------------------------0--------------------3--------
A|-----------------------------0-----------0--2--3-----3--2--
E|-----------------------------0--3--3--3--------------------
							http://www.guitartabcreator.com
Tab Notes

E|--------------------||(4x)        E|------------------||
B|-0-1-3-0-1---0------||            B|------------------||
G|-----------2---0-2--||            G|---0-0-2-4-0-4-2--||
D|--------------------||            D|-0----------------||
A|--------------------||            A|------------------||
E|--------------------||            E|------------------||


E|----------------------------------------------------------------||
B|-------------------------------0-1-3-1-0------------------------||
G|----------------------*0-0-0-2---------------------------0------||
D|-------------0-------------------------------------0-2-3---3-2--||
A|-------0-2-3---3-2---------------------------3-3-3--------------||
E|-3-3-3----------------------------------------------------------||


E|---------0-1-3-1-0----------------------------------------------||
B|*1-1-1-3---------------------------------------------0-1-3-1-0--||
G|--------------------------------------------*0-0-0-2------------||
D|-----------------------------------0----------------------------||
A|-----------------------------0-2-3---3-2------------------------||
E|-----------------------3-3-3------------------------------------||


E|-----------------------------0-2-3-5-3-2--||
B|----------------------*3-3-3--------------||
G|-----------0-2-0--------------------------||
D|-0-0-0-2-4-------4------------------------||
A|------------------------------------------||
E|------------------------------------------||


E|-3-3-3--3--3----3-3-3--3--3--||(2x)    E|-----------------------||(2x)
B|-0-0-0--1--0----0-0-0--1--0--||        B|-0-1-3-0-1---0---------||
G|-0-0-0--0--0----0-0-0--0--0--||        G|-----------2---0-2-----||
D|-0-0-0--2--0----0-0-0--2--0--||        D|-----------------------||
A|-0-0-0--0--0----0-0-0--0--0--||        A|-----------------------||
E|-3-3-3--3--3----3-3-3--3--3--||        E|-----------------------||

                                             C    G    D    G
E|-------------------------------------------0----3----2----3--||(2x)
B|-------------------------------------------1----0----3----0--||
G|---0-0-2-4-0-4-2-------0-0-2-4-0-4-2-------0----0----2----0--||
D|-0------------------*0---------------------2----0----0----0--||
A|-----------------------------------0-2-3---3----2----0----2--||
E|---------------------------------3---------0----3----0----3--||


E|------------------------------------------------------------------||
B|-------------------------------0-1-3-1-0--------------------------||
G|----------------------*0-0-0-2---------------------------0--------||
D|-------------0-------------------------------------0-2-3---3-2----||
A|-------0-2-3---3-2---------------------------3-3-3----------------||
E|-3-3-3------------------------------------------------------------||


E|---------0-1-3-1-0------------------------------------------------||
B|*1-1-1-3---------------------------------------------0-1-3-1-0----||
G|--------------------------------------------*0-0-0-2--------------||
D|-----------------------------------0------------------------------||
A|-----------------------------0-2-3---3-2--------------------------||
E|-----------------------3-3-3--------------------------------------||


E|-----------------------------0-2-3-5-3-2--||
B|----------------------*3-3-3--------------||
G|-----------0-2-0--------------------------||
D|-0-0-0-2-4-------4------------------------||
A|------------------------------------------||
E|------------------------------------------||


E|-3-3-3--3--3----3-3-3--3--3--||(2x)    E|--------------------||(2x)
B|-0-0-0--1--0----0-0-0--1--0--||        B|-0-1-3-0-1---0------||
G|-0-0-0--0--0----0-0-0--0--0--||        G|-----------2---0-2--||
D|-0-0-0--2--0----0-0-0--2--0--||        D|--------------------||
A|-0-0-0--0--0----0-0-0--0--0--||        A|--------------------||
E|-3-3-3--3--3----3-3-3--3--3--||        E|--------------------||

                                             C    G    D    G
E|-------------------------------------------0----3----2----3--||(2x end 
B|-------------------------------------------1----0----3----0--|| on C G)
G|---0-0-2-4-0-4-2-------0-0-2-4-0-4-2-------0----0----2----0--||
D|-0------------------*0---------------------2----0----0----0--||
A|-----------------------------------0-2-3---3----2----0----2--||
E|---------------------------------3---------0----3----0----3--||

[[".",".",".",".",".",".",".",".",".","0","3","3","3",".",".",".",".",".","."],[".",".",".",".",".",".",".",".",".","0",".",".",".","0","2","3",".","3","2"],[".",".",".",".",".",".",".",".",".","0",".",".",".",".",".",".","3",".","."],[".",".",".",".",".",".",".",".",".","0",".",".",".",".",".",".",".",".","."],["1","1","1","3",".",".",".",".",".","0",".",".",".",".",".",".",".",".","."],[".",".",".",".","0","1","3","1","0","0",".",".",".",".",".",".",".",".","."]]

Member for

8 years 8 months
Submitted by superlosers on Tue, 2011-10-25 20:03