Comfortably Numb First Solo Abbreviated

Chords

01234567891011121314151617181920212223
E
B
G
D
A
E
B
0 1 2 3 4 5 6 7 8 9 10 11 12 13 14 15 16 17 18 19 20 21 22 23
(/) Slide Up  (\) Slide Down  (h) Hammer On  (p) Pull Off  (b) Bend (r) Release (v) Vibrato

Stave 1:

E|--14v--14b15----------------------------------------
B|--------------15b17b15--15p14--14-------------------
G|-----------------------------------14---------------
D|---------------------------------------14v-----12v--
A|----------------------------------------------------
E|----------------------------------------------------

Stave 2:

E|--14b15-----------------------------------
B|---------15b17b15--14---------------------
G|-----------------------14----------9\12v--
D|---------------------------14--12---------
A|------------------------------------------
E|------------------------------------------

Stave 3:

E|-----------------------------------------------
B|-----------------------------------------------
G|--11--9--7--11\9--7v--------9p7-----7v--11b12--
D|---------------------------------9-------------
A|-----------------------------------------------
E|-----------------------------------------------

Stave 4:

E|--15p14p12------------------
B|------------15p12-----------
G|-------------------12-------
D|-----------------------12v--
A|----------------------------
E|----------------------------

							http://www.guitartabcreator.com
Instruments
{"title":"Comfortably Numb First Solo","strings":[[[14,"v",14,"b",15,".",".",".",".",".",".",".",".",".",".",".",".","_",".","."],[".",".",".",".",".",15,"b",17,"b",15,15,"p",14,14,".",".",".","_",".","."],[".",".",".",".",".",".",".",".",".",".",".",".",".",".",14,".",".","_",".","."],[".",".",".",".",".",".",".",".",".",".",".",".",".",".",".",14,"v","_",12,"v"],[".",".",".",".",".",".",".",".",".",".",".",".",".",".",".",".",".","_",".","."],[".",".",".",".",".",".",".",".",".",".",".",".",".",".",".",".",".","_",".","."]],[[14,"b",15,".",".",".",".",".",".",".",".",".",".",".",".","."],[".",".",".",15,"b",17,"b",15,14,".",".",".",".",".",".","."],[".",".",".",".",".",".",".",".",".",14,".",".",9,"\\",12,"v"],[".",".",".",".",".",".",".",".",".",".",14,12,".",".",".","."],[".",".",".",".",".",".",".",".",".",".",".",".",".",".",".","."],[".",".",".",".",".",".",".",".",".",".",".",".",".",".",".","."]],[[".",".",".",".",".",".",".",".","_","_",".",".",".",".",".",".",".",".","."],[".",".",".",".",".",".",".",".","_","_",".",".",".",".",".",".",".",".","."],[11,9,7,11,"\\",9,7,"v","_","_",9,"p",7,".",7,"v",11,"b",12],[".",".",".",".",".",".",".",".","_","_",".",".",".",9,".",".",".",".","."],[".",".",".",".",".",".",".",".","_","_",".",".",".",".",".",".",".",".","."],[".",".",".",".",".",".",".",".","_","_",".",".",".",".",".",".",".",".","."]],[[15,"p",14,"p",12,".",".",".",".",".","."],[".",".",".",".",".",15,"p",12,".",".","."],[".",".",".",".",".",".",".",".",12,".","."],[".",".",".",".",".",".",".",".",".",12,"v"],[".",".",".",".",".",".",".",".",".",".","."],[".",".",".",".",".",".",".",".",".",".","."]]],"numberofstrings":6,"notes":["E","B","G","D","A","E","B"],"capo":0,"stringnotes":["E4","B3","G3","D3","A2","E2"],"comments":["Stave 1:","Stave 2:","Stave 3:","Stave 4:"],"timing":[["H",null,"H",null,"H","H",null,"H",null,"H","H",null,"H","H","H","H",null,"H","H"],["H",null,"H","H",null,"H",null,"H","H","H","H","H","H","H","H","H",null,"H"],["H","H","H","H",null,"H","H",null,null,null,"H",null,"H","H","H",null,"H",null,"H"],["H",null,"H",null,"H","H",null,"H","H","H"]],"timingvisible":false,"tabcounter":11,"stave":3,"totalstaves":4,"instrument":"6guitar","selectedtuning":"6_standard","version":"13"}

Member for

8 years 11 months
Submitted by superlosers on Sun, 2019-08-04 16:31