Ascending Guitar Lick

Chords

01234567891011121314151617181920212223
E
B
G
D
A
E
B
0 1 2 3 4 5 6 7 8 9 10 11 12 13 14 15 16 17 18 19 20 21 22 23
(/) Slide Up  (\) Slide Down  (h) Hammer On  (p) Pull Off  (b) Bend (r) Release (v) Vibrato

Stave 1:

E|-----------------------7--10------8--12------10--14------12--14--15--
B|--------------------8---------10---------12----------13--------------
G|--------------4--7---------------------------------------------------
D|-----------5---------------------------------------------------------
A|-----2--5------------------------------------------------------------
E|--3------------------------------------------------------------------

Stave 2:

E|--5--2--0--0--7--4--0--0--9--5--0--0--11--7--0--0--12v--
B|--------------------------------------------------------
G|--------------------------------------------------------
D|--------------------------------------------------------
A|--------------------------------------------------------
E|--------------------------------------------------------

Stave 3:

E|----------------------------------------------------------------------------------
B|----------------------------------------------------------------------------------
G|--4p2-----------------2-----7--4-----------------4-----9--5-----------------5-----
D|-------5--4--2--4--5--------------7--5--4--5--7--------------9--7--5--7--9--------
A|----------------------------------------------------------------------------------
E|----------------------------------------------------------------------------------

							http://www.guitartabcreator.com
Tab Notes

Instruments
{"title":"Ascending Guitar Lick","strings":[[[".",".",".",".",".",".",".",7,10,".",8,12,".",10,14,".",12,14,15],[".",".",".",".",".",".",8,".",".",10,".",".",12,".",".",13,".",".","."],[".",".",".",".",4,7,".",".",".",".",".",".",".",".",".",".",".",".","."],[".",".",".",5,".",".",".",".",".",".",".",".",".",".",".",".",".",".","."],[".",2,5,".",".",".",".",".",".",".",".",".",".",".",".",".",".",".","."],[3,".",".",".",".",".",".",".",".",".",".",".",".",".",".",".",".",".","."]],[[5,2,0,0,7,4,0,0,9,5,0,0,11,7,0,0,12,"v"],[".",".",".",".",".",".",".",".",".",".",".",".",".",".",".",".",".","."],[".",".",".",".",".",".",".",".",".",".",".",".",".",".",".",".",".","."],[".",".",".",".",".",".",".",".",".",".",".",".",".",".",".",".",".","."],[".",".",".",".",".",".",".",".",".",".",".",".",".",".",".",".",".","."],[".",".",".",".",".",".",".",".",".",".",".",".",".",".",".",".",".","."]],[[".",".",".",".",".",".",".",".",".","_",".",".",".",".",".",".",".",".","_",".",".",".",".",".",".",".",".","_"],[".",".",".",".",".",".",".",".",".","_",".",".",".",".",".",".",".",".","_",".",".",".",".",".",".",".",".","_"],[4,"p",2,".",".",".",".",".",2,"_",7,4,".",".",".",".",".",4,"_",9,5,".",".",".",".",".",5,"_"],[".",".",".",5,4,2,4,5,".","_",".",".",7,5,4,5,7,".","_",".",".",9,7,5,7,9,".","_"],[".",".",".",".",".",".",".",".",".","_",".",".",".",".",".",".",".",".","_",".",".",".",".",".",".",".",".","_"],[".",".",".",".",".",".",".",".",".","_",".",".",".",".",".",".",".",".","_",".",".",".",".",".",".",".",".","_"]]],"numberofstrings":6,"notes":["E","B","G","D","A","E","B"],"capo":0,"stringnotes":["E4","B3","G3","D3","A2","E2"],"comments":["Stave 1:","Stave 2:","Stave 3:"],"timing":[["W","W","W","W","W","W","W","W","W","W","W","W","W","W","W","W","W","W","W"],["W","W","W","W","W","W","W","W","W","W","W","W","W","W","W","W","W"],["W",null,"W","W","W","W","W","W","W","W","W","W","W","W","W","W","W","W",null,"W","W","W","W","W","W","W","W"]],"timingvisible":false,"tabcounter":28,"stave":2,"totalstaves":3,"instrument":"6guitar","selectedtuning":"6_standard","version":"13"}

Member for

8 years 11 months
Submitted by superlosers on Sat, 2018-04-07 21:33