Sound will begin in 5 seconds

Start Dash!! Love Live

Chords
01234567891011121314151617181920212223
E
B
G
D
A
E
B
0 1 2 3 4 5 6 7 8 9 10 11 12 13 14 15 16 17 18 19 20 21 22 23
Song Science #1: How Pros Use 6 Chords to Write Hit Songs
(/) Slide Up  (\) Slide Down  (h) Hammer On  (p) Pull Off  (b) Bend (r) Release (v) Vibrato

Capo Fret 3

Stave 1:

E|--0-2h4--7--2--------0h2--5p4-----0--2--4--2--0--2--0-----0-----------------2\4-----------4--4--4--4--4--
B|------------------4------------------------------------4-----4--2--------2-------------------------------
G|---------------------------------------------------------------------------------------------------------
D|---------------------------------------------------------------------------------------------------------
A|---------------------------------------------------------------------------------------------------------
E|---------------------------------------------------------------------------------------------------------

Stave 2:

E|--0h2h4--4--2p0--2--0-----0-----------4--4--4--4--4--0------16--4--0--2--4--0-----0--
B|-----------------------4-----4--2--0--------------------16---------------------4-----
G|-------------------------------------------------------------------------------------
D|-------------------------------------------------------------------------------------
A|-------------------------------------------------------------------------------------
E|-------------------------------------------------------------------------------------

Stave 3:

E|--0--0--0-----0h2--4--2--0--2-----------------------------0--------0--0-----0h2--4--2--0--2--0--------
B|-----------0----------------------4--4--4--4--4--4--4--4-----4-----------0----------------------------
G|------------------------------------------------------------------------------------------------2--4--
D|------------------------------------------------------------------------------------------------------
A|-------------------------------2-------------------------------------------------------------------2--
E|------------------------------------------------------------------------------------------------------

Stave 4:

E|--12--12h13p12--12h13p12------
B|--------------------------13--
G|------------------------------
D|------------------------------
A|------------------------------
E|------------------------------

http://www.guitartabcreator.com
Guitar Tab Creator is intended to store guitar tab created through the tool. It currently does not support in-line text editing. Any text you place in here will be lost. If you need to comment on your tab, please use the "Tab Notes" section located below.