Sound will begin in 5 seconds

Megalovina

01234567891011121314151617181920212223
E
B
G
D
A
E
B
0 1 2 3 4 5 6 7 8 9 10 11 12 13 14 15 16 17 18 19 20 21 22 23
Song Science #1: How Pros Use 6 Chords to Write Hit Songs
(/) Slide Up  (\) Slide Down  (h) Hammer On  (p) Pull Off  (b) Bend (r) Release (v) Vibrato

Stave 1:

E|--------7---------------------------7---------------------------7---------------------------7-----------
B|--0--0-----7--6--5--3--0h3h5-----------7--6--5--3--0h3h5-----------7--6--5--3--0h3h5-----------7--6--5--
G|--------------------------------------------------------------------------------------------------------
D|------------------------------7--7------------------------5--5------------------------5--5--------------
A|--------------------------------------------------------------------------------------------------------
E|--------------------------------------------------------------------------------------------------------

Stave 2:

E|------------|--|--|--
B|--3--0h3h5--|--|--|--
G|------------|--|--|--
D|------------|--|--|--
A|------------|--|--|--
E|------------|--|--|--

Stave 3:

E|-----------------------------------------------------------------------------5-----7--7--7-----7--5--
B|--1/3--3--3--5--3--0--0--1/3--3--3--5--6b7--5p3p0--3--5--1/3--3--3--5--6--7-----7-----------7--------
G|-----------------------------------------------------------------------------------------------------
D|-----------------------------------------------------------------------------------------------------
A|-----------------------------------------------------------------------------------------------------
E|-----------------------------------------------------------------------------------------------------

Stave 4:

E|------------------------------------------------------7-----------5-----------------------5--------------
B|--1/3--3--3--5--3--0--0--1/3--3--3--0--3--3--2--0--------7--5--3-----5--3--2--------0--3-----2--0--0--0--
G|---------------------------------------------------2--------------------------0--2-----------------------
D|---------------------------------------------------------------------------------------------------------
A|---------------------------------------------------------------------------------------------------------
E|---------------------------------------------------------------------------------------------------------

Stave 5:

E|--------------------------------5------------------------5--6---------------
B|--3--0--3--5--6p5p3p0--5--6--7-----7p6--5\3--0--3--5--7--------7--7--5/3\5--
G|----------------------------------------------------------------------------
D|----------------------------------------------------------------------------
A|----------------------------------------------------------------------------
E|----------------------------------------------------------------------------

Stave 6:

E|-----0--3--10--9--7--9--10--12--9--14--14\6--6--7/8-----------|-----
B|--3-----------------------------------------------------------|--0--
G|--------------------------------------------------------------|-----
D|--------------------------------------------------------------|-----
A|--------------------------------------------------------------|-----
E|--------------------------------------------------------------|-----

Stave 7:

E|--
B|--
G|--
D|--
A|--
E|--

Stave 8:

E|--
B|--
G|--
D|--
A|--
E|--

http://www.guitartabcreator.com
Guitar Tab Creator is intended to store guitar tab created through the tool. It currently does not support in-line text editing. Any text you place in here will be lost. If you need to comment on your tab, please use the "Tab Notes" section located below.