Sound will begin in 5 seconds

Jimi Hendrix - Burning of The Midnight Lamp

Chords
01234567891011121314151617181920212223
E
B
G
D
A
E
B
0 1 2 3 4 5 6 7 8 9 10 11 12 13 14 15 16 17 18 19 20 21 22 23
Song Science #1: How Pros Use 6 Chords to Write Hit Songs
(/) Slide Up  (\) Slide Down  (h) Hammer On  (p) Pull Off  (b) Bend (r) Release (v) Vibrato

Stave 1:

E|--------------------------------------------------------------------------------------------------
B|--------------------------------------------------------------------------------------------------
G|--------------------------------------------------------------------------------------------------
D|--------3--2--------------------3--2--------2-----------3--2--------------2-----2--3--2--0--------
A|-----3--------3--5--5--3--3-----------3--5-----3-----1--------3--5--3--5--------------------------
E|--3--------------------------1--------------------1-----------------------------------------2--3--

Stave 2:

E|--1--1--1-----------1-----1-----1-----1--1--1-----1--1--1--------5--5--------5--5--------5--5--------
B|--1--1--1-----------1-----1-----1-----1--1--1-----1--1--1-----6--6--6-----6--6--6-----6--6--6--------
G|--2--2--2-----------2-----2-----2-----2--2--2-----2--2--2-----7--7--7-----7--7--7-----7--7--7--------
D|--3--3--3-----------3-----2-----3-----3--3--3-----3--3--3-----7--7--7-----7--7--7-----7--7--7--------
A|--3--3--3-----------3-----3-----3-----3--3--3-----3--3--3-----5--5--5-----5--5--5-----5--5--5-----5--
E|-----------------------------------------------------------------------------------------------------

Stave 3:

E|-----------------------------------------------------------------
B|--4--------4-----4-----4-----4-----4-----4-----------------------
G|--4--------4-----4-----4-----4-----4-----4-----4-----------------
D|--4--------4-----4-----4-----4-----4-----4-----4-----------------
A|--2--------2-----2-----2-----2-----2-----2-----2-----------6-----
E|-----------------------------------------------------------------

Stave 4:

E|-----------------------------------------------------------------------------------------------
B|--------9--9--9--------9--9--9-----9--9--9-----------5--------------------5--5--5--------------
G|--------9--9--9--------9--9--9-----9--9--9-----------5--------5--5--5-----5--5--5--------------
D|--------9--9--9--------9--9--9-----9--9--9-----------5--------5--5--5-----5--5--5--------------
A|--------7--7--7--------7--7--7-----7--7--7--------5-----------3--3--3-----3--3--3-----3--5--7--
E|-----------------------------------------------------------------------------------------------

Stave 5:

E|-----------------------------------------------------
B|-----3--3--3-----3--3--3--------3--3--5-----3--3--3--
G|-----4--4--4-----4--4--4--------4--4--4-----4--4--4--
D|-----5--5--5-----5--5--5--------5--5--5-----5--5--5--
A|-----------------------------------------------------
E|-----3--3--3-----3--3--3--------3--3--3-----3--3--3--

Stave 6:

E|-----------------------------------------------------------------------------------------------------
B|--7--7-----7--------7--7--7-----7--7--7-----------7--7--7--------10--10-----10-----------10--10--10--
G|--7--7-----7--------7--7--7-----7--7--7-----------7--7--7--------10--10-----10-----------10--10--10--
D|--7--7-----7--------7--7--7-----7--7--7-----------7--7--7--------10--10-----10-----------10--10--10--
A|--5--5-----5--------5--5--5-----5--5--5-----------5--5--5--------8---8------8------------8---8---8---
E|-----------------------------------------------------------------------------------------------------

Stave 7:

E|------------------------------------------------------------------------------------------------------
B|-----10--------10-----10--------11--11--11--11-----12--12--12-----12--12-----12--------12--12--12-----
G|-----10--------10-----10--------11--11--11--11-----12--12--12-----12--12-----12--------12--12--12-----
D|-----10--------10-----10--------11--11--11--11-----12--12--12-----12--12-----12--------12--12--12-----
A|-----8---------8------8---------9---9---9---9------10--10--10-----10--10-----10--------10--10--10-----
E|------------------------------------------------------------------------------------------------------

Stave 8:

E|--------------------
B|--12-----12--12-----
G|--12-----12--12-----
D|--12-----12--12-----
A|--10-----10--10-----
E|--------------------

Stave 9:

E|------------------------------13------14------14------15------15------15---------15------15------15--
B|-----------------------------------------------------------------------------------------------------
G|--------------------------14------15------15------16------16------16---------16------16------16------
D|-----------------------------------------------------------------------------------------------------
A|-----------------------------------------------------------------------------------------------------
E|-----------------------------------------------------------------------------------------------------

Stave 10:

E|----------17------17--
B|----------------------
G|--17--17------17------
D|----------------------
A|----------------------
E|----------------------

http://www.guitartabcreator.com
Guitar Tab Creator is intended to store guitar tab created through the tool. It currently does not support in-line text editing. Any text you place in here will be lost. If you need to comment on your tab, please use the "Tab Notes" section located below.