Sound will begin in 5 seconds

decimt

Chords
01234567891011121314151617181920212223
E
B
G
D
A
E
B
0 1 2 3 4 5 6 7 8 9 10 11 12 13 14 15 16 17 18 19 20 21 22 23
Song Science #1: How Pros Use 6 Chords to Write Hit Songs
(/) Slide Up  (\) Slide Down  (h) Hammer On  (p) Pull Off  (b) Bend (r) Release (v) Vibrato

Stave 1:

E|--------------------------------------------------------------------------------------------------
B|--------------------------------------------------------------------------------------------------
G|--------------------------------------------------------------------------------------------------
D|--------------6--7--6--7--------6--7--9--7--6--------10-----10-----9-----9-----7-----6------------
A|--7--8--7--8--------------7--8-----------------8-------------------------------------------7h8p7--
D|--------------------------------------------------0------0------0-----0-----0-----0-----0---------
G|--------------------------------------------------------------------------------------------------

Stave 2:

E|-----------------------------------------------------------------------------------------------------
B|-----------------------------------------------------------------------------------------------------
G|---------------------------------------------------9--7---------7-----------7------------------------
D|---------------------------------------------------------10--9-----7--6--------10--9--7--6-----------
A|--5/7-----7/8-----8/11-----11/12-----12--11--8--7-------------------------------------------8--7-----
D|-------0-------0--------0---------0------------------------------------------------------------------
G|-----------------------------------------------------------------------------------------------------

Stave 3:

E|--------------------------------------------------------------------------------------------------
B|--------------------------------------------------------------------------------------------------
G|--------------------------------------------------------------------------------------------------
D|--------------6--7--6--7--------6--7--9--7--6--------10-----10-----9-----9-----7-----6------------
A|--7--8--7--8--------------7--8-----------------8-------------------------------------------7h8p7--
D|--------------------------------------------------0------0------0-----0-----0-----0-----0---------
G|--------------------------------------------------------------------------------------------------

Stave 4:

E|-----------------------------------------------------------------------------------------------
B|-----------------------------------------------------------------------------------------------
G|---------------------------------------------------9--7---------7--------7---------------------
D|---------------------------------------------------------10--9-----7--6-----10--9--7--6--------
A|--5/7-----7/8-----8/11-----11/12-----12--11--8--7----------------------------------------8--7--
D|-------0-------0--------0---------0------------------------------------------------------------
G|-----------------------------------------------------------------------------------------------

Stave 5:

E|---------------------------------------------------------------------------------------------------
B|---------------------------------------------------------------------------------------------------
G|---------------------------------------------------------------------------------------------------
D|---------------------------------------7-----8--7--5-----------------------------------------------
A|--7h8-----4h5--------------4--7-----5-----------------7--4-----8--5--------------------------------
D|-------0-------0--1--4--0--------0--------0-----------------0--------0--8--7--5--4--1--0--7--4--0--
G|---------------------------------------------------------------------------------------------------

Stave 6:

E|-----------------------------------------------------------------------------------------------------
B|-----------------------------------------------------------------------------------------------------
G|-----------------------------------------------------------------------------------------------------
D|--------------------------------------------7--------8--7--5-----------------------------------------
A|-----------5p4-----8p7--------------7p4--------5--------------7--4-----8--5--------------------------
D|--4--7--4-------0-------0--1--4--0-------0--------0-----------------0--------0--8--7--5--4--1--0--8--
G|-----------------------------------------------------------------------------------------------------

Stave 7:

E|-----------------|-------------------------------------------------------------------------------
B|-----------------|-------------------------------------------------------------------------------
G|-----------------|-------------------------------------------------------------------------------
D|-----------------|--9-----6-----9-----6-------------------------------------3-----6-----9-----6--
A|-----------------|--7-----4-----7-----4-------------------------------------1-----4-----7-----4--
D|--5--0--5--8--5--|-----0-----0-----0-----0--8--7--6--8--7--6--0h2/3--6p3\2-----0-----0-----0-----
G|-----------------|-------------------------------------------------------------------------------

Stave 8:

E|----------------------------------------------------------------------------------------------------
B|----------------------------------------------------------------------------------------------------
G|----------------------------------------------------------------------------------------------------
D|--------------------------------------------9-----6-----9-----6-------------------------------------
A|--------------------------------------------7-----4-----7-----4-------------------------------------
D|--0-----0--0--0--2--2--2--3--3--3--0--0--0-----0-----0-----0-----0--8--7--6--8--7--6--0h2/3--6p3\2--
G|----------------------------------------------------------------------------------------------------

Stave 9:

E|-----------------------------------------------------------------------------
B|-----------------------------------------------------------------------------
G|-----------------------------------------------------------------------------
D|--3-----6-----9-----12-----15-----12-----9-----6-----5-----------------5-----
A|--1-----4-----7-----10-----13-----10-----7-----4-----4-----------------4-----
D|-----0-----0-----0------0------0------0-----0-----0-----0--1--4--1--0-----0--
G|-----------------------------------------------------------------------------

http://www.guitartabcreator.com
Guitar Tab Creator is intended to store guitar tab created through the tool. It currently does not support in-line text editing. Any text you place in here will be lost. If you need to comment on your tab, please use the "Tab Notes" section located below.