Sound will begin in 5 seconds

Rockin the Paradise Solo

01234567891011121314151617181920212223
E
B
G
D
A
E
B
0 1 2 3 4 5 6 7 8 9 10 11 12 13 14 15 16 17 18 19 20 21 22 23
(/) Slide Up  (\) Slide Down  (h) Hammer On  (p) Pull Off  (b) Bend (r) Release (v) Vibrato

Stave 1:

E|--------------------------
B|--------------------------
G|--------------------------
D|--------------------------
A|--------------------------
E|--0--0--2--0--3--0--4--0--

Stave 2:

E|-------------------------|-------------------------|-------------------5-----|--
B|--5--5b------------5--5--|--5--5--5b---------5--5--|--5b------------------5--|--
G|-------------------------|-------------------------|-------------------------|--
D|-------------------------|-------------------------|-------------------------|--
A|-------------------------|-------------------------|-------------------------|--
E|-------------------------|-------------------------|-------------------------|--

Stave 3:

E|--------------------------|--------------------------|--------------------------|--
B|--5--5--5--5--5--5--5-----|--------------------------|--------------------------|--
G|--------------------------|--5--5--------------------|--5--5--------------------|--
D|-----------------------2--|-----------7--7-----------|--------7--7--------------|--
A|--------------------------|--------------------------|--------------------------|--
E|--------------------------|--------------------------|--------------------------|--

Stave 4:

E|--------------------------|---------------------------|-----------------------------------|--
B|--------------------------|-----5---------------------|--10--12--12--12--10--12-----------|--
G|--5-----5-----5-----------|--------5-----------9--11--|-----------------------------------|--
D|--------------------7--5--|--5--------7--7--7---------|-----------------------------------|--
A|--------------------------|---------------------------|-----------------------------------|--
E|--------------------------|---------------------------|-----------------------------------|--

Stave 5:

E|------12--------------------------|--10--12--12--------12-----12--10--|--
B|--12------12--12--10--12--10--10--|-----------------------------------|--
G|----------------------------------|-----------------------------------|--
D|----------------------------------|-----------------------------------|--
A|----------------------------------|-----------------------------------|--
E|----------------------------------|-----------------------------------|--

Stave 6:

E|-----------------------|-----5--5--------------|-----------------------------------|--
B|-----------------------|-----------5--8--5--8--|--8--7-----6--5--------------------|--
G|--5--7--5--7--7-----5--|--6--------------------|--------------------8--7-----5--7--|--
D|-----------------------|-----------------------|-----------------------------------|--
A|-----------------------|-----------------------|-----------------------------------|--
E|-----------------------|-----------------------|-----------------------------------|--

Stave 7:

E|----------------------------|------------------------------------|--
B|----------------------------|------------------------------------|--
G|--5b---------5--------------|-----------------------------9--11--|--
D|-------------------7--7-----|-----5--7-----5--7--7-----7---------|--
A|----------------------------|------------------------------------|--
E|----------------------------|------------------------------------|--

Stave 8:

E|----------------------12----------------------|---------------------------------|--
B|--10--12--12--12--10------12--10--12--12--10--|--12--12--10-----12--12--10------|--
G|----------------------------------------------|---------------------------------|--
D|----------------------------------------------|-----------------------------12--|--
A|----------------------------------------------|---------------------------------|--
E|----------------------------------------------|---------------------------------|--

Stave 9:

E|------------------------------------------|-----------------------------------------|--
B|------------------------------------------|-----------------------------------------|--
G|------------------------------------------|-----------------------------------------|--
D|--12--10----------------------------------|--10--12--12--12--12--12--12--12--10--9--|--
A|----------12--10--12--12--12--12--12--12--|-----------------------------------------|--
E|------------------------------------------|-----------------------------------------|--

Stave 10:

E|--------------7------------|-------------7--7-----11--|--
B|-----------7-----7--10--7--|-------------------7------|--
G|-----7--8------------------|--8/------4---------------|--
D|--9------------------------|--------------------------|--
A|---------------------------|--------------------------|--
E|---------------------------|--------------------------|--

Stave 11:

E|--12--12----------12--------------|------------------------------------------|--
B|----------15--14------10--10------|--------------------------------------10--|--
G|------------------------------12--|------------------------------------------|--
D|----------------------------------|--12--10--12--10--12--12--12--10----------|--
A|----------------------------------|----------------------------------12------|--
E|----------------------------------|------------------------------------------|--

http://www.guitartabcreator.com
Guitar Tab Creator is intended to store guitar tab created through the tool. It currently does not support in-line text editing. Any text you place in here will be lost. If you need to comment on your tab, please use the "Tab Notes" section located below.