Sound will begin in 5 seconds

Ricks Quick LIcks The Lucid Legato one

01234567891011121314151617181920212223
E
B
G
D
A
E
B
0 1 2 3 4 5 6 7 8 9 10 11 12 13 14 15 16 17 18 19 20 21 22 23
Song Science #1: How Pros Use 6 Chords to Write Hit Songs
(/) Slide Up  (\) Slide Down  (h) Hammer On  (p) Pull Off  (b) Bend (r) Release (v) Vibrato

Stave 1:

E|-18h19p18p15h18p15----15----------------------15h17p15p14h15----14----------------------
B|-------------------19----17h19p17p15\14h15h17----------------17----15h17p15p14\12h14h15-
G|----------------------------------------------------------------------------------------
D|----------------------------------------------------------------------------------------
A|----------------------------------------------------------------------------------------
E|----------------------------------------------------------------------------------------

Stave 2:

E|-14h15p14p12h14p12----12----------------------12h14p12p10h12p10----10---------------
B|-------------------15----14h15p14p12\11h12h14-------------------14----12h14p12p10\9-
G|------------------------------------------------------------------------------------
D|------------------------------------------------------------------------------------
A|------------------------------------------------------------------------------------
E|------------------------------------------------------------------------------------

Stave 3:

E|-9h10h12p10p9h10p9----9----------------9h10p9p7h9p7----7----------------
B|-------------------12---12p10p9\7h9h10--------------10---8h10p8p7\5h7-8-
G|------------------------------------------------------------------------
D|------------------------------------------------------------------------
A|------------------------------------------------------------------------
E|------------------------------------------------------------------------

Stave 4:

E|-5h7h9p7p5h7p5---5-------------------------------------------
B|---------------8---7h8p7p5h7p5---5---------------------------
G|-------------------------------8---7h8p7p5\4h5p4---4---------
D|-------------------------------------------------7---5h7p5p4-
A|-------------------------------------------------------------
E|-------------------------------------------------------------

http://www.guitartabcreator.com
Guitar Tab Creator is intended to store guitar tab created through the tool. It currently does not support in-line text editing. Any text you place in here will be lost. If you need to comment on your tab, please use the "Tab Notes" section located below.