Sound will begin in 5 seconds

Rick Graham Legato Warm ups

01234567891011121314151617181920212223
E
B
G
D
A
E
B
0 1 2 3 4 5 6 7 8 9 10 11 12 13 14 15 16 17 18 19 20 21 22 23
Song Science #1: How Pros Use 6 Chords to Write Hit Songs
(/) Slide Up  (\) Slide Down  (h) Hammer On  (p) Pull Off  (b) Bend (r) Release (v) Vibrato

Stave 1:

E|-------------------------------7h11p7h9h10h11h10p9p7-------------------------
B|-------------------------7h10-------------------------10h7-------------------
G|------------6h9p7p6/7h9-------------------------------------8----------------
D|---------7-----------------------------------------------------9p7-----------
A|--5h7h9-------------------------------------------------------------9p7\6--9p
E|-----------------------------------------------------------------------------

Stave 2:

E|--------------------------------------9h13p9h11h12h13p12p11p9------------------
B|--------------------------------9h12---------------------------12p9------------
G|-----------------8h11p9p8/9h11---------------------------------------10--------
D|--------------9----------------------------------------------------------11p9--
A|--7p6/7h9h11-------------------------------------------------------------------
E|-------------------------------------------------------------------------------

Stave 3:

E|-------------------------------------------------------11h15p11h13h14h15p14p13p11--
B|------------------------------------------------11h14------------------------------
G|-----------------------------10h13p11p10/11h13-------------------------------------
D|-------------------------11--------------------------------------------------------
A|--11p9\8h11p9p8/9h11h13------------------------------------------------------------
E|-----------------------------------------------------------------------------------

http://www.guitartabcreator.com
Guitar Tab Creator is intended to store guitar tab created through the tool. It currently does not support in-line text editing. Any text you place in here will be lost. If you need to comment on your tab, please use the "Tab Notes" section located below.