Sound will begin in 5 seconds

Rick Graham Legato exercise 2

01234567891011121314151617181920212223
E
B
G
D
A
E
B
0 1 2 3 4 5 6 7 8 9 10 11 12 13 14 15 16 17 18 19 20 21 22 23
Song Science #1: How Pros Use 6 Chords to Write Hit Songs
(/) Slide Up  (\) Slide Down  (h) Hammer On  (p) Pull Off  (b) Bend (r) Release (v) Vibrato

Stave 1:

E|--------------------------------------------------------------------------------------16h21p16h
B|-------------------------------------------------------------------------16h21p16h19-----------
G|--------------------------------------------13h18p13h16-----16h20p16h18------------------------
D|---------------11h16p11h13-----13h18p13h16-----------------------------------------------------
A|--11h16p11h14----------------------------------------------------------------------------------
E|-----------------------------------------------------------------------------------------------

Stave 2:

E|--19h21p19p16/19h21h23--23--23p21p19\18--------------------------------------------------------
B|-----------------------------------------19----------------------------------------------------
G|---------------------------------------------20p18\15h16h18--20p18p16p15-----------------------
D|--------------------------------------------------------------------------16-------------------
A|------------------------------------------------------------------------------18p16p14\13------
E|-------------------------------------------------------------------------------------------16--

Stave 3:

E|---------------
B|---------------
G|---------------
D|---------------
A|---------------
E|--14h16/18p16--

http://www.guitartabcreator.com
Guitar Tab Creator is intended to store guitar tab created through the tool. It currently does not support in-line text editing. Any text you place in here will be lost. If you need to comment on your tab, please use the "Tab Notes" section located below.