Sound will begin in 5 seconds

Paul Gilbert Alternate Picked 16th Notes

01234567891011121314151617181920212223
E
B
G
D
A
E
B
0 1 2 3 4 5 6 7 8 9 10 11 12 13 14 15 16 17 18 19 20 21 22 23
Song Science #1: How Pros Use 6 Chords to Write Hit Songs
(/) Slide Up  (\) Slide Down  (h) Hammer On  (p) Pull Off  (b) Bend (r) Release (v) Vibrato

Stave 1:

E|-7-5-------5-----8-7--------7------10-8---------8------12-10----------10-------14-12----------12-------
B|-----8-5-7---8-5-----10-7-8---10-7------12-8-10---12-8-------13-10-12----13-10-------15-12-13----15-12-
G|-------------------------------------------------------------------------------------------------------
D|-------------------------------------------------------------------------------------------------------
A|-------------------------------------------------------------------------------------------------------
E|-------------------------------------------------------------------------------------------------------

Stave 2:

E|-15-14----------14----17-15----------15-------19-17----------17----------17-15----------15-------15-14-
B|-------17-13-15----17-------19-15-17----19-15-------20-17-19----20-17----------19-15-17----19-15-------
G|-------------------------------------------------------------------------------------------------------
D|-------------------------------------------------------------------------------------------------------
A|-------------------------------------------------------------------------------------------------------
E|-------------------------------------------------------------------------------------------------------

Stave 3:

E|----------14-------14-12----------12-------12-10----------10-------10-8---------8------8-7--------7----
B|-17-13-15----17-13-------15-12-13----15-12-------13-10-12----13-10------12-8-10---12-8-----10-7-8---10-
G|-------------------------------------------------------------------------------------------------------
D|-------------------------------------------------------------------------------------------------------
A|-------------------------------------------------------------------------------------------------------
E|-------------------------------------------------------------------------------------------------------

http://www.guitartabcreator.com
Guitar Tab Creator is intended to store guitar tab created through the tool. It currently does not support in-line text editing. Any text you place in here will be lost. If you need to comment on your tab, please use the "Tab Notes" section located below.