Sound will begin in 5 seconds

Sweet Fantasi

Chords
01234567891011121314151617181920212223
E
B
G
D
A
E
B
0 1 2 3 4 5 6 7 8 9 10 11 12 13 14 15 16 17 18 19 20 21 22 23
Song Science #1: How Pros Use 6 Chords to Write Hit Songs
(/) Slide Up  (\) Slide Down  (h) Hammer On  (p) Pull Off  (b) Bend (r) Release (v) Vibrato

Stave 1:

E|----------------------------------------------------------------------
B|--------6--------------6-------------------11-----------------11------
G|-----------7--------------7--------------------12-----------------12--
D|-----7--------------7------------------12-----------------12----------
A|--5--------------5-----------------10-----------------10--------------
E|----------------------------------------------------------------------

Stave 2:

E|--6-----5-----1-----5-----
B|--6-----5-----1-----5--6--
G|--6--7--5--6--1--2--5-----
D|--6--8--5--7--1--3--5--7--
A|--6--8--5--7--1--3--5-----
E|--6-----5-----1-----5-----

Stave 3:

E|--5-----------3-----------5-----
B|--5--6--------3-----------5-----
G|--5-----------3-----------5--6--
D|--5--7--------3-----------5-----
A|--5-----------3--5--------5--7--
E|--5-----------3-----------5-----

Stave 4:

E|------------------------------------------10--13--
B|----------------------------------10--13----------
G|--------------------------10--12------------------
D|------------------10--12--------------------------
A|----------10--12----------------------------------
E|--10--13------------------------------------------

Stave 5:

E|--------------------------13--15--
B|------------------13--15----------
G|----------12--14------------------
D|--12--15--------------------------
A|----------------------------------
E|----------------------------------

Stave 6:

E|--------------------------------2--5--
B|--------------------------3--6--------
G|--------------------2--5--------------
D|--------------3--5--------------------
A|--------3--5--------------------------
E|--3--5--------------------------------

http://www.guitartabcreator.com
Guitar Tab Creator is intended to store guitar tab created through the tool. It currently does not support in-line text editing. Any text you place in here will be lost. If you need to comment on your tab, please use the "Tab Notes" section located below.