Sound will begin in 5 seconds

New Strings solo

01234567891011121314151617181920212223
E
B
G
D
A
E
B
0 1 2 3 4 5 6 7 8 9 10 11 12 13 14 15 16 17 18 19 20 21 22 23
Song Science #1: How Pros Use 6 Chords to Write Hit Songs
(/) Slide Up  (\) Slide Down  (h) Hammer On  (p) Pull Off  (b) Bend (r) Release (v) Vibrato

Stave 1:

E|--------------------------------2--5--
B|--------------------------2--5--------
G|--------------------1--4--------------
D|--------------2--4--------------------
A|--------2--4--------------------------
E|--2--4--------------------------------

Stave 2:

E|--------------------------------4--7--
B|--------------------------5--7--------
G|--------------------4--6--------------
D|--------------4--6--------------------
A|--------4--7--------------------------
E|--4--7--------------------------------

Stave 3:

E|--------------------------------7--9--
B|--------------------------7--9--------
G|--------------------6--9--------------
D|--------------6--9--------------------
A|--------7--9--------------------------
E|--7--9--------------------------------

Stave 4:

E|-------------------------------------9--12--
B|------------------------------9--12---------
G|-----------------------9--11----------------
D|----------------9--11-----------------------
A|---------9--11------------------------------
E|--9--12-------------------------------------

Stave 5:

E|--------------------------------2--5--
B|--------------------------2--5--------
G|--------------------2--4--------------
D|--------------2--4--------------------
A|--------2--4--------------------------
E|--2--5--------------------------------

Stave 6:

E|--------------------5--7--
B|--------------5--7--------
G|--------4--6--------------
D|--4--7--------------------
A|--------------------------
E|--------------------------

Stave 7:

E|---------------------------------7--9--
B|--------------------------7--10--------
G|--------------------6--9---------------
D|--------------7--9---------------------
A|--------7--9---------------------------
E|--7--9---------------------------------

Stave 8:

E|--------------------------------------9--12--
B|------------------------------10--12---------
G|-----------------------9--11-----------------
D|----------------9--11------------------------
A|---------9--12-------------------------------
E|--9--12--------------------------------------

http://www.guitartabcreator.com
Guitar Tab Creator is intended to store guitar tab created through the tool. It currently does not support in-line text editing. Any text you place in here will be lost. If you need to comment on your tab, please use the "Tab Notes" section located below.