Dreaming for far too long.

Chords

01234567891011121314151617181920212223
E
B
G
D
A
E
B
0 1 2 3 4 5 6 7 8 9 10 11 12 13 14 15 16 17 18 19 20 21 22 23
(/) Slide Up  (\) Slide Down  (h) Hammer On  (p) Pull Off  (b) Bend (r) Release (v) Vibrato

Stave 1:

E|---------------------------------------------------------------------------------------------------------------------------------------------------------------
B|---------------------------------------------------------------------------------------------------------------------------------------------------------------
G|---------------------------------------------------------------------------------------------------------------------------------------------------------------
D|--------------------------------------------------------8--9--10--8--9--10--8--9--10-----------------------------------------------------------------8--9--10--
A|-----------------------------5--6--7--5--6--7--5--6--7--------------------------------0--0--0-----------------------------5--6--7--5--6--7--5--6--7------------
D|--3--4--5--3--4--5--3--4--5-----------------------------------------------------------0--0--0--3--4--5--3--4--5--3--4--5---------------------------------------

Stave 2:

E|--------------------------------------------------------------------------------------------------------------------------------------------------------------
B|--------------------------------------------------------------------------------------------------------------------------------------------------------------
G|--------------------------------------------------------------------------8--9--10--8--9--10--8--9--10--------------------------------------------------------
D|--3--3--3--5--5--5-----------------------------5--6--7--5--6--7--5--6--7--------------------------------3--3--3--5--5--5-----------------------------5--6--7--
A|--1--1--1--3--3--3--3--4--5--3--4--5--3--4--5-----------------------------------------------------------1--1--1--3--3--3--3--4--5--3--4--5--3--4--5-----------
D|--------------------------------------------------------------------------------------------------------------------------------------------------------------

							http://www.guitartabcreator.com
Instruments
{"strings":[[[".",".",".",".",".",".",".",".",".",".",".",".",".",".",".",".",".",".",".",".",".",".",".",".",".",".",".",".",".",".",".",".",".",".",".",".",".",".",".",".",".",".",".",".",".",".",".",".",".",".","."],[".",".",".",".",".",".",".",".",".",".",".",".",".",".",".",".",".",".",".",".",".",".",".",".",".",".",".",".",".",".",".",".",".",".",".",".",".",".",".",".",".",".",".",".",".",".",".",".",".",".","."],[".",".",".",".",".",".",".",".",".",".",".",".",".",".",".",".",".",".",".",".",".",".",".",".",".",".",".",".",".",".",".",".",".",".",".",".",".",".",".",".",".",".",".",".",".",".",".",".",".",".","."],[".",".",".",".",".",".",".",".",".",".",".",".",".",".",".",".",".",".",8,9,10,8,9,10,8,9,10,".",".",".",".",".",".",".",".",".",".",".",".",".",".",".",".",".",".",".",".",".",8,9,10],[".",".",".",".",".",".",".",".",".",5,6,7,5,6,7,5,6,7,".",".",".",".",".",".",".",".",".",0,0,0,".",".",".",".",".",".",".",".",".",5,6,7,5,6,7,5,6,7,".",".","."],[3,4,5,3,4,5,3,4,5,".",".",".",".",".",".",".",".",".",".",".",".",".",".",".",".",".",".",0,0,0,3,4,5,3,4,5,3,4,5,".",".",".",".",".",".",".",".",".",".",".","."]],[[".",".",".",".",".",".",".",".",".",".",".",".",".",".",".",".",".",".",".",".",".",".",".",".",".",".",".",".",".",".",".",".",".",".",".",".",".",".",".",".",".",".",".",".",".",".",".",".",".",".","."],[".",".",".",".",".",".",".",".",".",".",".",".",".",".",".",".",".",".",".",".",".",".",".",".",".",".",".",".",".",".",".",".",".",".",".",".",".",".",".",".",".",".",".",".",".",".",".",".",".",".","."],[".",".",".",".",".",".",".",".",".",".",".",".",".",".",".",".",".",".",".",".",".",".",".",".",8,9,10,8,9,10,8,9,10,".",".",".",".",".",".",".",".",".",".",".",".",".",".",".",".",".","."],[3,3,3,5,5,5,".",".",".",".",".",".",".",".",".",5,6,7,5,6,7,5,6,7,".",".",".",".",".",".",".",".",".",3,3,3,5,5,5,".",".",".",".",".",".",".",".",".",5,6,7],[1,1,1,3,3,3,3,4,5,3,4,5,3,4,5,".",".",".",".",".",".",".",".",".",".",".",".",".",".",".",".",".",".",1,1,1,3,3,3,3,4,5,3,4,5,3,4,5,".",".","."],[".",".",".",".",".",".",".",".",".",".",".",".",".",".",".",".",".",".",".",".",".",".",".",".",".",".",".",".",".",".",".",".",".",".",".",".",".",".",".",".",".",".",".",".",".",".",".",".",".",".","."]]],"numberofstrings":6,"notes":["E","B","G","D","A","D"],"capo":0,"stringnotes":["E3","B2","G2","D2","A1","D1"],"comments":["Stave 1:","Stave 2:"],"timing":[[null,null,null,null,null,null,null,null,null,null,null,null,null,null,null,null,null,null,null,null,null,null,null,null,null,null,null,null,null,null,null,null,null,null,null,null,null,null,null,null,null,null,null,null,null,null,null,null,null,null,null],[null,null,null,null,null,null,null,null,null,null,null,null,null,null,null,null,null,null,null,null,null,null,null,null,null,null,null,null,null,null,null,null,null,null,null,null,null,null,null,null,null,null,null,null,null,null,null,null,null,null,null]],"timingvisible":false,"tabcounter":51,"stave":1,"totalstaves":2,"instrument":"6guitar","selectedtuning":"Drop D","version":"13"}

Member for

2 months
Submitted by streetline dance on Thu, 2020-07-30 13:47