Rat King 1

01234567891011121314151617181920212223
E
B
G
D
A
E
B
0 1 2 3 4 5 6 7 8 9 10 11 12 13 14 15 16 17 18 19 20 21 22 23
(/) Slide Up  (\) Slide Down  (h) Hammer On  (p) Pull Off  (b) Bend (r) Release (v) Vibrato

Stave 1:

F|--------------------------------------------------------------------
C|--------------------------------------------------------------6--5--
G|-----------------------------------------------------6--5--6--------
C|--------------------------------------------------------------------
C|--0-----6--5-----1--0--1--4--3-----0--0-----6--5--------------------

Stave 2:

F|-----------------------------------
C|-----------------------------------
G|-----------------------------------
C|-----------------------------------
C|--0--0-----6--6-----5--5-----1-----

Stave 3:

F|--------------------------------------------------------------------------------------------------------------------------
C|--------------------------------------------------------------------------------------------------------------------------
G|--------------------------------------------------------------------------------------------------------------------------
C|--------------------------------------------------------------------------------------------------------------------------
C|--6--6--6--6--6--6--6--6--5--5--5--5--5--5--5--5--4--4--4--4--4--4--4--4--6--6--6--6--6--6--6--6--1--1--1--1--1--1--1--1--

							http://www.guitartabcreator.com
Chords

Instruments
{"strings":[[[".","_",".",".","_",".",".",".",".",".","_",".",".","_",".",".","_",".",".",".",".","."],[".","_",".",".","_",".",".",".",".",".","_",".",".","_",".",".","_",".",".",".",6,5],[".","_",".",".","_",".",".",".",".",".","_",".",".","_",".",".","_",6,5,6,".","."],[".","_",".",".","_",".",".",".",".",".","_",".",".","_",".",".","_",".",".",".",".","."],[0,"_",6,5,"_",1,0,1,4,3,"_",0,0,"_",6,5,"_",".",".",".",".","."]],[[".",".","_",".",".","_",".",".","_",".","_"],[".",".","_",".",".","_",".",".","_",".","_"],[".",".","_",".",".","_",".",".","_",".","_"],[".",".","_",".",".","_",".",".","_",".","_"],[0,0,"_",6,6,"_",5,5,"_",1,"_"]],[[".",".",".",".",".",".",".",".",".",".",".",".",".",".",".",".",".",".",".",".",".",".",".",".",".",".",".",".",".",".",".",".",".",".",".",".",".",".",".","."],[".",".",".",".",".",".",".",".",".",".",".",".",".",".",".",".",".",".",".",".",".",".",".",".",".",".",".",".",".",".",".",".",".",".",".",".",".",".",".","."],[".",".",".",".",".",".",".",".",".",".",".",".",".",".",".",".",".",".",".",".",".",".",".",".",".",".",".",".",".",".",".",".",".",".",".",".",".",".",".","."],[".",".",".",".",".",".",".",".",".",".",".",".",".",".",".",".",".",".",".",".",".",".",".",".",".",".",".",".",".",".",".",".",".",".",".",".",".",".",".","."],[6,6,6,6,6,6,6,6,5,5,5,5,5,5,5,5,4,4,4,4,4,4,4,4,6,6,6,6,6,6,6,6,1,1,1,1,1,1,1,1]]],"numberofstrings":5,"notes":["F","C","G","C","C"],"capo":0,"stringnotes":["F1","C3","G1","C2","C1"],"comments":["Stave 1:","Stave 2:","Stave 3:","Stave 4:"],"timing":[["W","W","W","W","W","W","W","W","W","W","W","W","W","W","W","W","W","W","W","W","W","W"],["W","W","W","W","W","W","W","W","W","W","W"],["W","W","W","W","W","W","W","W","W","W","W","W","W","W","W","W","W","W","W","W","W","W","W","W","W","W","W","W","W","W","W","W","W","W","W","W","W","W","W","W"],[]],"timingvisible":false,"tabcounter":40,"stave":2,"totalstaves":3,"instrument":"5bass","selectedtuning":"5bass","version":"13"}

Member for

3 months
Submitted by Street Ratz on Tue, 2021-10-19 22:43