Stairway To Heaven Solo

Chords

01234567891011121314151617181920212223
E
B
G
D
A
E
B
0 1 2 3 4 5 6 7 8 9 10 11 12 13 14 15 16 17 18 19 20 21 22 23
(/) Slide Up  (\) Slide Down  (h) Hammer On  (p) Pull Off  (b) Bend (r) Release (v) Vibrato

Stave 1:

E|---------|-5----------------------|------8-8--------------------------------------------|-
B|---------|---8p5------------------|-8/10-----13b15-13-10-------13-15p13-----------------|-
G|-7b9v----|-------7p5---7p5--------|----------------------12/14----------14p12----12h14v-|-
D|---------|-----------7-----7p5----|-------------------------------------------14--------|-
A|---------|---------------------8v-|-----------------------------------------------------|-
E|---------|------------------------|-----------------------------------------------------|-

Stave 2:

E|---------|-5---------------------------------|-5---------------------------|-
B|---------|---8p5-----------------------------|---8p5-----------------------|-
G|-7b9v----|-------7p5---7p5-----------5-5-5---|-------7p5---5h7p5-----------|-
D|---------|-----------7-----7p5---5h7-------5-|-----------7-------7-5-7-5---|-
A|---------|---------------------7-------------|---------------------------8-|-
E|---------|-----------------------------------|-----------------------------|-

Stave 3:

E|---------------|------------8-|-10b12-10p8-10p8-|-15b17-15-13----------------|-
B|-------6-------|-----8-8-10---|-----------------|-------------15b17-15-13----|-
G|-----5---7p5---|-7/9----------|-----------------|-------------------------14-|-
D|-5/7---------7-|--------------|-----------------|----------------------------|-
A|---------------|--------------|-----------------|----------------------------|-
E|---------------|--------------|-----------------|----------------------------|-

Stave 4:

E|----------------------------|----------------|-15b17v-|-12----12-------------------------|-
B|----13----13-15b17r15p13----|-15b17r15p13----|--------|----15----15-13----13-15-13----13-|-
G|-14----14----------------14-|-------------14-|--------|----------------14----------14----|-
D|----------------------------|----------------|--------|----------------------------------|-
A|----------------------------|----------------|--------|----------------------------------|-
E|----------------------------|----------------|--------|----------------------------------|-

Stave 5:

E|-------15--------------|----------17--------------------------------|------------------------------|-
B|-15b17----17r15-13-----|-------20----20-----------------------------|------------------------------|-
G|-------------------14v-|-19b21----------21r19p17-19-17----17-19b21v-|-14b17v-14b17-14-12-14-12b14v-|-
D|-----------------------|-------------------------------19-----------|------------------------------|-
A|-----------------------|--------------------------------------------|------------------------------|-
E|-----------------------|--------------------------------------------|------------------------------|-

Stave 6:

E|-----------|-----------------------------|----20p17----20p17----20p17----20p17----20p17----20b22v----|-
B|-----------|-----------------------------|-17-------17-------17-------17-------17-------17-----------|-
G|-10-10b14v-|-10-9-7-5-5-7-7b7b7b9r7p5----|-----------------------------------------------------------|-
D|-----------|--------------------------7v-|-----------------------------------------------------------|-
A|-----------|-----------------------------|-----------------------------------------------------------|-
E|-----------|-----------------------------|-----------------------------------------------------------|-

							http://www.guitartabcreator.com
Instruments
{"strings":[[[".",".",".",".","_","|",5,".",".",".",".",".",".",".",".",".",".",".",".",".",".",".","|",".",".",".",8,8,".",".",".",".",".",".",".",".",".",".",".",".",".",".",".",".",".",".",".",".","|"],[".",".",".",".","_","|",".",8,"p",5,".",".",".",".",".",".",".",".",".",".",".",".","|",8,"/",10,".",".",13,"b",15,13,10,".",".",".",13,15,"p",13,".",".",".",".",".",".",".",".","|"],[7,"b",9,"v","_","|",".",".",".",".",7,"p",5,".",7,"p",5,".",".",".",".",".","|",".",".",".",".",".",".",".",".",".",".",12,"/",14,".",".",".",".",14,"p",12,".",12,"h",14,"v","|"],[".",".",".",".","_","|",".",".",".",".",".",".",".",7,".",".",".",7,"p",5,".",".","|",".",".",".",".",".",".",".",".",".",".",".",".",".",".",".",".",".",".",".",".",14,".",".",".",".","|"],[".",".",".",".","_","|",".",".",".",".",".",".",".",".",".",".",".",".",".",".",8,"v","|",".",".",".",".",".",".",".",".",".",".",".",".",".",".",".",".",".",".",".",".",".",".",".",".",".","|"],[".",".",".",".","_","|",".",".",".",".",".",".",".",".",".",".",".",".",".",".",".",".","|",".",".",".",".",".",".",".",".",".",".",".",".",".",".",".",".",".",".",".",".",".",".",".",".",".","|"]],[[".",".",".",".","_","|",5,".",".",".",".",".",".",".",".",".",".",".",".",".",".",".",".",".",".",".",".",".","|",5,".",".",".",".",".",".",".",".",".",".",".",".",".",".",".",".",".","|"],[".",".",".",".","_","|",".",8,"p",5,".",".",".",".",".",".",".",".",".",".",".",".",".",".",".",".",".",".","|",".",8,"p",5,".",".",".",".",".",".",".",".",".",".",".",".",".",".","|"],[7,"b",9,"v","_","|",".",".",".",".",7,"p",5,".",7,"p",5,".",".",".",".",".",".",".",5,5,5,".","|",".",".",".",".",7,"p",5,".",5,"h",7,"p",5,".",".",".",".",".","|"],[".",".",".",".","_","|",".",".",".",".",".",".",".",7,".",".",".",7,"p",5,".",5,"h",7,".",".",".",5,"|",".",".",".",".",".",".",".",7,".",".",".",".",".",7,5,7,5,".","|"],[".",".",".",".","_","|",".",".",".",".",".",".",".",".",".",".",".",".",".",".",7,".",".",".",".",".",".",".","|",".",".",".",".",".",".",".",".",".",".",".",".",".",".",".",".",".",8,"|"],[".",".",".",".","_","|",".",".",".",".",".",".",".",".",".",".",".",".",".",".",".",".",".",".",".",".",".",".","|",".",".",".",".",".",".",".",".",".",".",".",".",".",".",".",".",".",".","|"]],[[".",".",".",".",".",".",".",".",".","|",".",".",".",".",".",".",8,"|",10,"b",12,10,"p",8,10,"p",8,"|",15,"b",17,15,13,".",".",".",".",".",".","|"],[".",".",".",".",6,".",".",".",".","|",".",".",".",8,8,10,".","|",".",".",".",".",".",".",".",".",".","|",".",".",".",".",".",15,"b",17,15,13,".","|"],[".",".",".",5,".",7,"p",5,".","|",7,"/",9,".",".",".",".","|",".",".",".",".",".",".",".",".",".","|",".",".",".",".",".",".",".",".",".",".",14,"|"],[5,"/",7,".",".",".",".",".",7,"|",".",".",".",".",".",".",".","|",".",".",".",".",".",".",".",".",".","|",".",".",".",".",".",".",".",".",".",".",".","|"],[".",".",".",".",".",".",".",".",".","|",".",".",".",".",".",".",".","|",".",".",".",".",".",".",".",".",".","|",".",".",".",".",".",".",".",".",".",".",".","|"],[".",".",".",".",".",".",".",".",".","|",".",".",".",".",".",".",".","|",".",".",".",".",".",".",".",".",".","|",".",".",".",".",".",".",".",".",".",".",".","|"]],[[".",".",".",".",".",".",".",".",".",".",".",".","|",".",".",".",".",".",".",".",".","|",15,"b",17,"v","|",12,".",12,".",".",".",".",".",".",".",".","|"],[".",13,".",13,15,"b",17,"r",15,"p",13,".","|",15,"b",17,"r",15,"p",13,".","|",".",".",".",".","|",".",15,".",15,13,".",13,15,13,".",13,"|"],[14,".",14,".",".",".",".",".",".",".",".",14,"|",".",".",".",".",".",".",".",14,"|",".",".",".",".","|",".",".",".",".",".",14,".",".",".",14,".","|"],[".",".",".",".",".",".",".",".",".",".",".",".","|",".",".",".",".",".",".",".",".","|",".",".",".",".","|",".",".",".",".",".",".",".",".",".",".",".","|"],[".",".",".",".",".",".",".",".",".",".",".",".","|",".",".",".",".",".",".",".",".","|",".",".",".",".","|",".",".",".",".",".",".",".",".",".",".",".","|"],[".",".",".",".",".",".",".",".",".",".",".",".","|",".",".",".",".",".",".",".",".","|",".",".",".",".","|",".",".",".",".",".",".",".",".",".",".",".","|"]],[[".",".",".",15,".",".",".",".",".",".","|",".",".",".",".",17,".",".",".",".",".",".",".",".",".",".",".",".",".",".","|",".",".",".",".",".",".",".",".",".",".",".",".",".",".","|"],[15,"b",17,".",17,"r",15,13,".",".","|",".",".",".",20,".",20,".",".",".",".",".",".",".",".",".",".",".",".",".","|",".",".",".",".",".",".",".",".",".",".",".",".",".",".","|"],[".",".",".",".",".",".",".",".",14,"v","|",19,"b",21,".",".",".",21,"r",19,"p",17,19,17,".",17,19,"b",21,"v","|",14,"b",17,"v",14,"b",17,14,12,14,12,"b",14,"v","|"],[".",".",".",".",".",".",".",".",".",".","|",".",".",".",".",".",".",".",".",".",".",".",".",".",19,".",".",".",".",".","|",".",".",".",".",".",".",".",".",".",".",".",".",".",".","|"],[".",".",".",".",".",".",".",".",".",".","|",".",".",".",".",".",".",".",".",".",".",".",".",".",".",".",".",".",".",".","|",".",".",".",".",".",".",".",".",".",".",".",".",".",".","|"],[".",".",".",".",".",".",".",".",".",".","|",".",".",".",".",".",".",".",".",".",".",".",".",".",".",".",".",".",".",".","|",".",".",".",".",".",".",".",".",".",".",".",".",".",".","|"]],[[".",".",".",".",".","|",".",".",".",".",".",".",".",".",".",".",".",".",".",".",".",".",".",".",".","|",".",20,"p",17,".",20,"p",17,".",20,"p",17,".",20,"p",17,".",20,"p",17,".",20,"b",22,"v","_","|"],[".",".",".",".",".","|",".",".",".",".",".",".",".",".",".",".",".",".",".",".",".",".",".",".",".","|",17,".",".",".",17,".",".",".",17,".",".",".",17,".",".",".",17,".",".",".",17,".",".",".",".","_","|"],[10,10,"b",14,"v","|",10,9,7,5,5,7,7,"b",7,"b",7,"b",9,"r",7,"p",5,".",".","|",".",".",".",".",".",".",".",".",".",".",".",".",".",".",".",".",".",".",".",".",".",".",".",".",".","_","|"],[".",".",".",".",".","|",".",".",".",".",".",".",".",".",".",".",".",".",".",".",".",".",".",7,"v","|",".",".",".",".",".",".",".",".",".",".",".",".",".",".",".",".",".",".",".",".",".",".",".",".",".","_","|"],[".",".",".",".",".","|",".",".",".",".",".",".",".",".",".",".",".",".",".",".",".",".",".",".",".","|",".",".",".",".",".",".",".",".",".",".",".",".",".",".",".",".",".",".",".",".",".",".",".",".",".","_","|"],[".",".",".",".",".","|",".",".",".",".",".",".",".",".",".",".",".",".",".",".",".",".",".",".",".","|",".",".",".",".",".",".",".",".",".",".",".",".",".",".",".",".",".",".",".",".",".",".",".",".",".","_","|"]]],"numberofstrings":6,"notes":["E","B","G","D","A","E","B"],"capo":0,"stringnotes":["E4","B3","G3","D3","A2","E2"],"comments":["Stave 1:","Stave 2:","Stave 3:","Stave 4:","Stave 5:","Stave 6:","Stave 7:","Stave 8:"],"timing":[["W",null,"W",null,null,null,"W","W",null,"W","W",null,"W","W","W",null,"W","W",null,"W","W",null,null,"W",null,"W","W","W","W",null,"W","W","W","W",null,"W","W","W",null,"W","W",null,"W","W","W",null,"W"],["W",null,"W","W","W",null,"W","W",null,"W","W",null,"W","W","W",null,"W","W",null,"W","W","W",null,"W","W","W","W","W",null,"W","W",null,"W","W",null,"W","W","W",null,"W",null,"W","W","W","W","W","W"],["W",null,"W","W","W","W",null,"W","W",null,"W",null,"W","W","W","W","W",null,"W",null,"W","W",null,"W","W",null,"W",null,"W",null,"W","W","W","W",null,"W","W","W","W"],["W","W","W","W","W",null,"W","W","W","W","W","W",null,"W",null,"W",null,"W",null,"W","W",null,"W",null,"W",null,null,"W","W","W","W","W","W","W","W","W","W","W"],["W",null,"W","W","W",null,"W","W","W",null,null,"W",null,"W","W","W","W","W",null,"W",null,"W","W","W","W","W","W",null,"W",null,null,"W",null,"W",null,"W",null,"W","W","W","W","W",null,"W"],["W","W",null,"W","W","W","W","W","W","W","W","W","W",null,"W",null,"W",null,"W",null,"W",null,"W","W",null,null,"W","W",null,"W","W","W",null,"W","W","W",null,"W","W","W",null,"W","W","W",null,"W","W","W",null,"W"],[],[]],"timingvisible":false,"tabcounter":0,"totalstaves":6,"instrument":"6guitar","selectedtuning":"6_standard","version":"13"}

Member for

2 years 4 months
Submitted by strattonaight on Wed, 2020-12-02 21:17