Nothing Else Matters Solo

Chords

01234567891011121314151617181920212223
E
B
G
D
A
E
B
0 1 2 3 4 5 6 7 8 9 10 11 12 13 14 15 16 17 18 19 20 21 22 23
(/) Slide Up  (\) Slide Down  (h) Hammer On  (p) Pull Off  (b) Bend (r) Release (v) Vibrato

Stave 1:

E|--------------------|--------------------------|-------------------12----------12-------------------|-
B|-15----15-----------|--------------------------|----------------12----------12----15p12----12-------|-
G|-14b16-14b16r14-12v-|-12-11-12p11----11--------|-12-14-12-14b16-------14b16-------------15----15-14-|-
D|--------------------|-------------14----12-14v-|----------------------------------------------------|-
A|--------------------|--------------------------|----------------------------------------------------|-
E|--------------------|--------------------------|----------------------------------------------------|-

Stave 2:

E|----------------------|-14b15-15r14-----14b15-15r14-15/17v-|-15-14h15p14\12----15-14-----|-
B|----------14-14-13----|-------------12v--------------------|----------------12-------12v-|-
G|-12b14----14-14-13-12-|------------------------------------|-----------------------------|-
D|-------14-------------|------------------------------------|-----------------------------|-
A|----------------------|------------------------------------|-----------------------------|-
E|----------------------|------------------------------------|-----------------------------|-

Stave 3:

E|-------------------------------------12--------|-12--------------|--------------|-
B|----------15----------------------12----15b17v-|----15p12-15b17v-|-12h15p12v----|-
G|-12-14-12-14b16r14p12----12-14b16--------------|-----------------|--------------|-
D|----------------------14-----------------------|-----------------|--------------|-
A|-----------------------------------------------|-----------------|--------------|-
E|-----------------------------------------------|-----------------|--------------|-

							http://www.guitartabcreator.com
Instruments
{"strings":[[[".",".",".",".",".",".",".",".",".",".","|",".",".",".",".",".",".",".",".",".",".","|",".",".",".",".",".",".",".",12,".",".",".",".",12,".",".",".",".",".",".",".","|"],[15,".",".",15,".",".",".",".",".",".","|",".",".",".",".",".",".",".",".",".",".","|",".",".",".",".",".",".",12,".",".",".",".",12,".",15,"p",12,".",12,".",".","|"],[14,"b",16,14,"b",16,"r",14,12,"v","|",12,11,12,"p",11,".",11,".",".",".","|",12,14,12,14,"b",16,".",".",14,"b",16,".",".",".",".",".",15,".",15,14,"|"],[".",".",".",".",".",".",".",".",".",".","|",".",".",".",".",".",14,".",12,14,"v","|",".",".",".",".",".",".",".",".",".",".",".",".",".",".",".",".",".",".",".",".","|"],[".",".",".",".",".",".",".",".",".",".","|",".",".",".",".",".",".",".",".",".",".","|",".",".",".",".",".",".",".",".",".",".",".",".",".",".",".",".",".",".",".",".","|"],[".",".",".",".",".",".",".",".",".",".","|",".",".",".",".",".",".",".",".",".",".","|",".",".",".",".",".",".",".",".",".",".",".",".",".",".",".",".",".",".",".",".","|"]],[[".",".",".",".",".",".",".",".","|",14,"b",15,15,"r",14,".",".",14,"b",15,15,"r",14,15,"/",17,"v","|",15,14,"h",15,"p",14,"\\",12,".",15,14,".",".","|"],[".",".",".",".",14,14,13,".","|",".",".",".",".",".",".",12,"v",".",".",".",".",".",".",".",".",".",".","|",".",".",".",".",".",".",".",".",12,".",".",12,"v","|"],[12,"b",14,".",14,14,13,12,"|",".",".",".",".",".",".",".",".",".",".",".",".",".",".",".",".",".",".","|",".",".",".",".",".",".",".",".",".",".",".",".",".","|"],[".",".",".",14,".",".",".",".","|",".",".",".",".",".",".",".",".",".",".",".",".",".",".",".",".",".",".","|",".",".",".",".",".",".",".",".",".",".",".",".",".","|"],[".",".",".",".",".",".",".",".","|",".",".",".",".",".",".",".",".",".",".",".",".",".",".",".",".",".",".","|",".",".",".",".",".",".",".",".",".",".",".",".",".","|"],[".",".",".",".",".",".",".",".","|",".",".",".",".",".",".",".",".",".",".",".",".",".",".",".",".",".",".","|",".",".",".",".",".",".",".",".",".",".",".",".",".","|"]],[[".",".",".",".",".",".",".",".",".",".",".",".",".",".",".",".",12,".",".",".",".","|",12,".",".",".",".",".",".",".","|",".",".",".",".",".",".","_","|"],[".",".",".",15,".",".",".",".",".",".",".",".",".",".",".",12,".",15,"b",17,"v","|",".",15,"p",12,15,"b",17,"v","|",12,"h",15,"p",12,"v","_","|"],[12,14,12,14,"b",16,"r",14,"p",12,".",12,14,"b",16,".",".",".",".",".",".","|",".",".",".",".",".",".",".",".","|",".",".",".",".",".",".","_","|"],[".",".",".",".",".",".",".",".",".",".",14,".",".",".",".",".",".",".",".",".",".","|",".",".",".",".",".",".",".",".","|",".",".",".",".",".",".","_","|"],[".",".",".",".",".",".",".",".",".",".",".",".",".",".",".",".",".",".",".",".",".","|",".",".",".",".",".",".",".",".","|",".",".",".",".",".",".","_","|"],[".",".",".",".",".",".",".",".",".",".",".",".",".",".",".",".",".",".",".",".",".","|",".",".",".",".",".",".",".",".","|",".",".",".",".",".",".","_","|"]]],"numberofstrings":6,"notes":["E","B","G","D","A","E","B"],"capo":0,"stringnotes":["E4","B3","G3","D3","A2","E2"],"comments":["Stave 1:","Stave 2:","Stave 3:","Stave 4:","Stave 5:"],"timing":[["W","W","W","W",null,"W",null,"W","W",null,null,"W","W","W",null,"W","W","W","W","W",null,null,"W","W","W","W",null,"W","W","W","W",null,"W","W","W","W",null,"W","W","W","W","W"],["W",null,"W","W","W","W","W","W",null,"W",null,"W","W",null,"W","W",null,"W",null,"W","W",null,"W","W",null,"W",null,null,"W","W","W","W",null,"W",null,"W","W","W","W","W"],["W","W","W","W",null,"W",null,"W",null,"W","W","W","W",null,"W","W","W","W",null,"W",null,null,"W","W",null,"W","W",null,"W","W",null,"W",null,"W",null,"W"],[],[]],"timingvisible":false,"tabcounter":39,"stave":2,"totalstaves":3,"instrument":"6guitar","selectedtuning":"6_standard","version":"13"}

Member for

2 years 4 months
Submitted by strattonaight on Wed, 2020-12-02 20:10