lil riff thingy

Chords

01234567891011121314151617181920212223
E
B
G
D
A
E
B
0 1 2 3 4 5 6 7 8 9 10 11 12 13 14 15 16 17 18 19 20 21 22 23
(/) Slide Up  (\) Slide Down  (h) Hammer On  (p) Pull Off  (b) Bend (r) Release (v) Vibrato

Stave 1:

E|-------------------------------------
B|-------------------------------------
G|-------------------------------7-----
D|--------------6-----6--7--7/9-----9--
A|--------6--7-----7-------------------
E|--6--7-------------------------------

Stave 2:

E|---------------------------------------------------------------------------------------------
B|---------------------------------------------------------------------------------------------
G|---------------------------------------------------------------------------------------------
D|-----------7--6-----6--7/9--7-----7/9--7--------------7/9--7--6--6b7r6-----------------------
A|--------6--------7-------------9----------7-----7--9--------------------7--6-----7--6--------
E|--6--7---------------------------------------9--------------------------------7--------7--6--

							http://www.guitartabcreator.com
Instruments
{"strings":[[[".",".",".",".",".",".",".",".",".",".",".",".","."],[".",".",".",".",".",".",".",".",".",".",".",".","."],[".",".",".",".",".",".",".",".",".",".",".",7,"."],[".",".",".",".",6,".",6,7,7,"/",9,".",9],[".",".",6,7,".",7,".",".",".",".",".",".","."],[6,7,".",".",".",".",".",".",".",".",".",".","."]],[[".",".",".",".",".",".",".",".",".",".",".",".",".",".",".",".",".",".",".",".",".",".",".",".",".",".",".",".",".",".",".",".",".",".",".",".","."],[".",".",".",".",".",".",".",".",".",".",".",".",".",".",".",".",".",".",".",".",".",".",".",".",".",".",".",".",".",".",".",".",".",".",".",".","."],[".",".",".",".",".",".",".",".",".",".",".",".",".",".",".",".",".",".",".",".",".",".",".",".",".",".",".",".",".",".",".",".",".",".",".",".","."],[".",".",".",7,6,".",6,7,"/",9,7,".",7,"/",9,7,".",".",".",".",7,"/",9,7,6,6,"b",7,"r",6,".",".",".",".",".",".","."],[".",".",6,".",".",7,".",".",".",".",".",9,".",".",".",".",7,".",7,9,".",".",".",".",".",".",".",".",".",".",7,6,".",7,6,".","."],[6,7,".",".",".",".",".",".",".",".",".",".",".",".",".",".",".",9,".",".",".",".",".",".",".",".",".",".",".",".",".",".",7,".",".",7,6]]],"numberofstrings":6,"notes":["E","B","G","D","A","E","B"],"capo":0,"stringnotes":["E4","B3","G3","D3","A2","E2"],"comments":["Stave 1:","Stave 2:"],"timing":[[null,null,null,null,null,null,null,null,null,null,null,null,null],[null,null,null,null,null,null,null,null,null,null,null,null,null,null,null,null,null,null,null,null,null,null,null,null,null,null,null,null,null,null,null,null,null,null,null,null,null]],"timingvisible":false,"tabcounter":37,"stave":1,"totalstaves":2,"instrument":"6guitar","selectedtuning":"6_standard","version":"13"}

Member for

4 months 3 weeks
Submitted by StockBeta on Fri, 2020-11-20 12:36