Honey Creek - D.O.G.D. Lead Tabs

Chords

01234567891011121314151617181920212223
E
B
G
D
A
E
B
0 1 2 3 4 5 6 7 8 9 10 11 12 13 14 15 16 17 18 19 20 21 22 23
(/) Slide Up  (\) Slide Down  (h) Hammer On  (p) Pull Off  (b) Bend (r) Release (v) Vibrato

Intro Main Lead (first note is palm muted). Repeats before second chorus

D|-----0--------0-----------------0------------
A|--------7--------7--5--7-----------7--10--7--
F|--7--------7--------------7--7---------------
C|--------------------------------------7---4--
G|---------------------------------------------
C|---------------------------------------------

Chorus Lead 1st half (arpeggio) 

D|--10----------10----------12--10--10----------10----------12--10--10----------10----------12--10--10----------10------14--15--14--
A|------10----------10------------------10----------10------------------10----------10------------------10--------------------------
F|----------11----------11------------------11----------11------------------11----------11------------------11------14--------------
C|----------------------------------------------------------------------------------------------------------------------------------
G|----------------------------------------------------------------------------------------------------------------------------------
C|----------------------------------------------------------------------------------------------------------------------------------

Chorus second half (octaves)

D|------------------------------------------------------
A|------------------------------------------------------
F|--14--12--11--12--11--11--9--7--9--11--12--11--11--9--
C|------------------------------------------------------
G|--12--10--9---10--9---9---7--5--7--9---10--9---9---7--
C|------------------------------------------------------

Outro Lead riff

D|-----10--9--10-----10--9--10-----9--10-----10--9--10-----------------
A|---------------------------------------------------------7--5--7-----
F|--7-------------7-------------7---------7-------------7-----------7--
C|---------------------------------------------------------------------
G|---------------------------------------------------------------------
C|---------------------------------------------------------------------

							http://www.guitartabcreator.com
Instruments
{"strings":[[[".",0,".",".",0,".",".",".",".",".",0,".",".","."],[".",".",7,".",".",7,5,7,".",".",".",7,10,7],[7,".",".",7,".",".",".",".",7,7,".",".",".","."],[".",".",".",".",".",".",".",".",".",".",".",".",7,4],[".",".",".",".",".",".",".",".",".",".",".",".",".","."],[".",".",".",".",".",".",".",".",".",".",".",".",".","."]],[[10,".",".",10,".",".",12,10,10,".",".",10,".",".",12,10,10,".",".",10,".",".",12,10,10,".",".",10,".",14,15,14],[".",10,".",".",10,".",".",".",".",10,".",".",10,".",".",".",".",10,".",".",10,".",".",".",".",10,".",".",".",".",".","."],[".",".",11,".",".",11,".",".",".",".",11,".",".",11,".",".",".",".",11,".",".",11,".",".",".",".",11,".",14,".",".","."],[".",".",".",".",".",".",".",".",".",".",".",".",".",".",".",".",".",".",".",".",".",".",".",".",".",".",".",".",".",".",".","."],[".",".",".",".",".",".",".",".",".",".",".",".",".",".",".",".",".",".",".",".",".",".",".",".",".",".",".",".",".",".",".","."],[".",".",".",".",".",".",".",".",".",".",".",".",".",".",".",".",".",".",".",".",".",".",".",".",".",".",".",".",".",".",".","."]],[[".",".",".",".",".",".",".",".",".",".",".",".",".","."],[".",".",".",".",".",".",".",".",".",".",".",".",".","."],[14,12,11,12,11,11,9,7,9,11,12,11,11,9],[".",".",".",".",".",".",".",".",".",".",".",".",".","."],[12,10,9,10,9,9,7,5,7,9,10,9,9,7],[".",".",".",".",".",".",".",".",".",".",".",".",".","."]],[[".",10,9,10,".",10,9,10,".",9,10,".",10,9,10,".",".",".",".","."],[".",".",".",".",".",".",".",".",".",".",".",".",".",".",".",".",7,5,7,"."],[7,".",".",".",7,".",".",".",7,".",".",7,".",".",".",7,".",".",".",7],[".",".",".",".",".",".",".",".",".",".",".",".",".",".",".",".",".",".",".","."],[".",".",".",".",".",".",".",".",".",".",".",".",".",".",".",".",".",".",".","."],[".",".",".",".",".",".",".",".",".",".",".",".",".",".",".",".",".",".",".","."]]],"numberofstrings":6,"notes":["D","A","F","C","G","C"],"capo":0,"stringnotes":["D3","A2","F2","C2","G1","C1"],"comments":["Intro Main Lead (first note is palm muted). Repeats before second chorus","Chorus Lead 1st half (arpeggio) ","Chorus second half (octaves)","Outro Lead riff"],"timing":[["W","W","W","W","W","W","W","W","W","W","W","W","W","W"],["W","W","W","W","W","W","W","W","W","W","W","W","W","W","W","W","W","W","W","W","W","W","W","W","W","W","W","W","W","W","W","W"],["W","W","W","W","W","W","W","W","W","W","W","W","W","W"],["W","W","W","W","W","W","W","W","W","W","W","W","W","W","W","W","W","W","W","W"]],"timingvisible":false,"tabcounter":20,"stave":3,"totalstaves":4,"instrument":"6guitar","selectedtuning":"Drop C","version":"13"}

Member for

3 months 3 weeks
Submitted by stheno15 on Wed, 2020-09-23 20:13