Sound will begin in 5 seconds

Christian- Amazing Grace-A

01234567891011121314151617181920212223
E
B
G
D
A
E
B
0 1 2 3 4 5 6 7 8 9 10 11 12 13 14 15 16 17 18 19 20 21 22 23
Song Science #1: How Pros Use 6 Chords to Write Hit Songs
(/) Slide Up  (\) Slide Down  (h) Hammer On  (p) Pull Off  (b) Bend (r) Release (v) Vibrato

Stave 1:

E|-----------------------------------------------------------------------------------------------------------
B|---------------------------------------------------------------------------------12--12v-----12b12---------
G|---------9v--11\13--9--11\13--11--9--------------------9v--11\13--9--11\13v--11---------------------11h13--
D|--9--11------------------------------11--9v-----9--11------------------------------------------------------
A|-----------------------------------------------------------------------------------------------------------
E|-----------------------------------------------------------------------------------------------------------

Stave 2:

E|--------------------------------------------------
B|--------------------------------------------------
G|--9h11\13--11/9-----------------9v--11\13--11/9v--
D|-----------------11--9v--9--11--------------------
A|--------------------------------------------------
E|--------------------------------------------------

Stave 3:

E|-------------------------------------------------------------------------------------------------
B|-----------------------------------------------------------------------9--12--12v--9h10p9/7h9p7--
G|-----------9v--11b13--9h11b13--11p9v-----------------9v--11b13--11b13----------------------------
D|--5\9--11-----------------------------9h11h11--9h11----------------------------------------------
A|-------------------------------------------------------------------------------------------------
E|-------------------------------------------------------------------------------------------------

Stave 4:

E|-----------------------------------------------------------------------------
B|--12b14--12------------------------------------------------------------------
G|-------------11b13--11b13--9v------------------------9h11p9--11b13--9h11p9v--
D|-------------------------------9--9--11v--9v--9--11--------------------------
A|-----------------------------------------------------------------------------
E|-----------------------------------------------------------------------------

Stave 5:

E|-----------------------------------------------------------------------------
B|------------17v--19b21--19--19b21--19b21--19v---------------------17h19p17v--
G|--9\16--18-------------------------------------16h18p16v--16--18-------------
D|-----------------------------------------------------------------------------
A|-----------------------------------------------------------------------------
E|-----------------------------------------------------------------------------

http://www.guitartabcreator.com
Guitar Tab Creator is intended to store guitar tab created through the tool. It currently does not support in-line text editing. Any text you place in here will be lost. If you need to comment on your tab, please use the "Tab Notes" section located below.