Sound will begin in 5 seconds

Blackguard Farewell

01234567891011121314151617181920212223
E
B
G
D
A
E
B
0 1 2 3 4 5 6 7 8 9 10 11 12 13 14 15 16 17 18 19 20 21 22 23
Song Science #1: How Pros Use 6 Chords to Write Hit Songs
(/) Slide Up  (\) Slide Down  (h) Hammer On  (p) Pull Off  (b) Bend (r) Release (v) Vibrato

Stave 1:

E|-----------------------------------------------------------------------------------------------
B|-----------------------------------------------------------------------------------------------
G|--------------------------------2----------------------------------------2---------------------
D|----0------------7--------------2------5------5------0----------7--------2------3------5----0--
A|----0------------5--------------0------5------3------0----------5--------0------1------5----0--
D|----0----0--0---------0--0-------------5-------------0----0--0-----0--0----------------5----0--

Stave 2:

E|--------------------------------------------------------------------------------------------------------
B|-------------------------------------------------------------------------------------------------8------
G|--------------------10----------------------------------------10--------------10--10--10--9--10-----10--
D|--12----10--10--12------12--10--12--0--0--12--12--12--10--12------12--10--------------------------------
A|--------------------------------------------------------------------------12----------------------------
D|--------------------------------------------------------------------------------------------------------

Stave 3:

E|---------10--8------8--12--8------8--------------------------------------------------------------------
B|----------------10------------10-----------------------------------------------------------------------
G|--9--10----------------------------------------------10----------------------------------------10------
D|-------------------------------------12--10--10--12------12--10--12--0--0--12--12--12--10--12------12--
A|-------------------------------------------------------------------------------------------------------
D|-------------------------------------------------------------------------------------------------------

Stave 4:

E|-------------------------------------------------------------------------------------------------------
B|-----------------------------8-------------------------------------------------------------------------
G|----------10--10--10--9--10-----10--9--10----------10--12--10--------------10--12--10------------------
D|--10---------------------------------------10--12--------------12--10--12--------------12--12--10--10--
A|------12-----------------------------------------------------------------------------------------------
D|-------------------------------------------------------------------------------------------------------

Stave 5:

E|----
B|----
G|----
D|----
A|----
D|----

Stave 6:

E|-------------------------------------------------------------------------------------------------10--8--
B|-----------------------------------------------------------------------------------8--------------------
G|------10----------------------------------------10--------------10--10--10--9--10-----10--9--10---------
D|--12------12--10--12--0--0--12--12--12--10--12------12--10----------------------------------------------
A|------------------------------------------------------------12------------------------------------------
D|--------------------------------------------------------------------------------------------------------

Stave 7:

E|------8--12--8------8------------------------------------------------------------------------------------
B|--10------------10---------------------------------------------------------------------------------------
G|---------------------------------------10----------------------------------------10--------------10--10--
D|-----------------------12--10--10--12------12--10--12--0--0--12--12--12--10--12------12--10--------------
A|---------------------------------------------------------------------------------------------12----------
D|---------------------------------------------------------------------------------------------------------

Stave 8:

E|---------------------------13--10------------------------------------------------------------------------
B|-------------8---------------------13--10--13--15--13--15--13------13--15--15----------------------------
G|--10--9--10-----10--9--10--------------------------------------14----------------------5h5---------------
D|--------------------------------------------------------------------------------------------------4------
A|--------------------------------------------------------------------------------------------------2------
D|---------------------------------------------------------------------------------------------------------

Stave 9:

E|-------------------------------------------------------------------------------------------------------
B|-------------------------------------------------------------------------------------------------------
G|-------------------------------------------------------------------------------------------------------
D|----7--------7--------7-----7--------7--------7-----8--------8--------8-----8--------8--------8-----7--
A|----5--5--5--5--5--5--5--5--5--5--5--5--5--5--5--5--5--5--5--5--5--5--5--5--5--5--5--5--5--5--5--5--5--
D|-------------------------------------------------------------------------------------------------------

Stave 10:

E|----------------------------------------------------------------
B|----------------------------------------------------------------
G|-------------------------------------------------------------2--
D|--------7--------7-----7--------7--------7-----3------5------2--
A|--5--5--5--5--5--5--5--5--5--5--5--5--5--5--5--3------3------0--
D|-----------------------------------------------3----------------

Stave 11:

E|-----------------------------------------------------------------------------------------
B|-----------------------------------------------------------------------------------------
G|-----------------------------------------------------------------------------------------
D|-----------------------------------------------------------------------------------------
A|-----------------------------------------------------------------------------------------
D|--0----0--0--0----0--0--0----0--0--0----0--0--0----0--0--0----0--0--0----0--0--0----0--0--

Stave 12:

E|--------------------------------------------------------------------------------------------------------
B|--------------------------------------------------------------------------------------------------------
G|--------------------------------------------------------------------------------------------------------
D|--3------5--7--------------------------------------------------------------------------------------------
A|--3------5--7--------------------------------------------------------------------------------------------
D|--3------5--7----0----0--0--0----0--0--0----0--0--0----0--0--0----0--0--0----0--0--0----0--0--0----0--0--

Stave 13:

E|--------------
B|--------------
G|--------------
D|--3------5--2--
A|--3------3--0--
D|--3------------

Stave 14:

E|----13--10--13--10--13--10--13--15--17--10--17--10--15--10--13--10----------------------------------
B|--------------------------------------------------------------------15--11--15--11--15--11--15--11--
G|----------------------------------------------------------------------------------------------------
D|----------------------------------------------------------------------------------------------------
A|----------------------------------------------------------------------------------------------------
D|----------------------------------------------------------------------------------------------------

Stave 15:

E|----------------------13--15--17--13--10--13--10--13--10--13--15--17--10--17--10--15--10--13--10------
B|--17--13--13--15--17------------------------------------------------------------------------------15--
G|------------------------------------------------------------------------------------------------------
D|------------------------------------------------------------------------------------------------------
A|------------------------------------------------------------------------------------------------------
D|------------------------------------------------------------------------------------------------------

Stave 16:

E|---------------------------------------------------------------
B|--11--15--11--15--11--15--11--17--13--15--11--13--10--11--11v--
G|---------------------------------------------------------------
D|---------------------------------------------------------------
A|---------------------------------------------------------------
D|---------------------------------------------------------------

Stave 17:

E|----------------------------------------------------------------------------------------------------
B|----------------------------------------------------------------------------------------------------
G|----------------------------------------------------------------------------------------------------
D|---------------------------------------------------6----------10------------------------------------
A|----------------------------------------------------------------------------------------------------
D|--0--0--0----0----0--0--0----0----0--0--0----0--0-------0--0--------0--0--0----0----0--0--0----0----

Stave 18:

E|-------------------------------------------------------------------------------------------------------
B|-------------------------------------------------------------------------------------------------------
G|-------------------------------------------------------------------------------------------------------
D|-------------------------------------------------------------------------------7--5--4-----5--4--------
A|-------------------8----------11--------------------------------------------------------6--------6--5--
D|--0--0--0----0--0-------0--0--------0--0--0----0----0--0--0----0----0--0--0----------------------------

Stave 19:

E|------------------------------------------------------------------------------------------------------
B|----------------------------------------------------------13------------------------------------------
G|------14--12--12--14------14--12--12--14------14--12--14------14--12--14------19--17--17--19------19--
D|--12------------------12------------------12------------------------------15------------------15------
A|------------------------------------------------------------------------------------------------------
D|------------------------------------------------------------------------------------------------------

Stave 20:

E|----------------------------------------------|--15--12--------------12--12--13--12------|--
B|------------------------------18------18------|----------13------13------------------13--|--
G|--17--17--19------19--17--19------19------19--|--------------12--------------------------|--
D|--------------15------------------------------|------------------------------------------|--
A|----------------------------------------------|------------------------------------------|--
D|----------------------------------------------|------------------------------------------|--

Stave 21:

E|--------------------------------------------------------------------------------------------
B|--------------------------------------------------------------------------------------------
G|--------------------------------------------------------------------------------------------
D|--12----12--12--12--12--12--12--12--12--12--15----15--15--15--14--10--12----12--12--12--12--
A|--------------------------------------------------------------------------------------------
D|--------------------------------------------------------------------------------------------

Stave 22:

E|--13--10----------------------12--13--15--13--------------------------------------------
B|----------11----------------------------------------------------------------------------
G|--------------10------------------------------------------------------------------------
D|------------------12------------------------------12--12--12--15----15--15--15--14------
A|----------------------13--15--------------------------------------------------------15--
D|----------------------------------------------------------------------------------------

Stave 23:

E|--17--13--------------13--15--12--------------12--12--9-------------9--11--8-----------8--
B|----------15------15--------------13------13-------------10-----10------------9-----9-----
G|--------------14----------------------12---------------------9-------------------8--------
D|------------------------------------------------------------------------------------------
A|------------------------------------------------------------------------------------------
D|------------------------------------------------------------------------------------------

Stave 24:

E|--17--13--------------13--17--13--------------13--------------------------------------13--15--17--18----
B|----------15------15--------------15------15------------------15--17--18--13--15--17--------------------
G|--------------14----------------------14----------14--15--17--------------------------------------------
D|--------------------------------------------------------------------------------------------------------
A|--------------------------------------------------------------------------------------------------------
D|--------------------------------------------------------------------------------------------------------

Stave 25:

E|--18--17--15--17----15----13----12----13--10--5--13--10--5--13--10--5--13--10--5--13--8--5--13--8--5--
B|------------------------------------------------------------------------------------------------------
G|------------------------------------------------------------------------------------------------------
D|------------------------------------------------------------------------------------------------------
A|------------------------------------------------------------------------------------------------------
D|------------------------------------------------------------------------------------------------------

Stave 26:

E|--13--8--5--13--8--5--15--10--6--15--10--6--15--10--6--17--10--5--13--10--------------10--15--12------
B|--------------------------------------------------------------------------11------11--------------13--
G|------------------------------------------------------------------------------10----------------------
D|------------------------------------------------------------------------------------------------------
A|------------------------------------------------------------------------------------------------------
D|------------------------------------------------------------------------------------------------------

Stave 27:

E|----------12----10--12--13--15--13--12--10--12--13--17--13--12--10--12--13--18--13--12--10--12--13--17--
B|------13------------------------------------------------------------------------------------------------
G|--12----------------------------------------------------------------------------------------------------
D|--------------------------------------------------------------------------------------------------------
A|--------------------------------------------------------------------------------------------------------
D|--------------------------------------------------------------------------------------------------------

Stave 28:

E|--15--13--12--10--15--13--15--13--12--10--15--13--15--13--12--10----------------------------------
B|------------------------------------------------------------------15--13--11--10--15--13--11--10--
G|--------------------------------------------------------------------------------------------------
D|--------------------------------------------------------------------------------------------------
A|--------------------------------------------------------------------------------------------------
D|--------------------------------------------------------------------------------------------------

Stave 29:

E|-----------------------------------
B|-----------------------------------
G|--14--12--10--14--12--10-----------
D|--------------------------12--12v--
A|-----------------------------------
D|-----------------------------------

http://www.guitartabcreator.com
Guitar Tab Creator is intended to store guitar tab created through the tool. It currently does not support in-line text editing. Any text you place in here will be lost. If you need to comment on your tab, please use the "Tab Notes" section located below.