Sound will begin in 5 seconds

Crossroadblues

01234567891011121314151617181920212223
E
B
G
D
A
E
B
0 1 2 3 4 5 6 7 8 9 10 11 12 13 14 15 16 17 18 19 20 21 22 23
Song Science #1: How Pros Use 6 Chords to Write Hit Songs
(/) Slide Up  (\) Slide Down  (h) Hammer On  (p) Pull Off  (b) Bend (r) Release (v) Vibrato

Stave 1:

E|---------0--------0--------0-----------------|--
B|------------------------------------------0--|--
G|----2/4-----4--3-----3--2-----2--1--------2--|--
D|------------------------------------------1--|--
A|---------------4--------3--------2--0--1--2--|--
E|---------------------------------------------|--

Stave 2:

E|-------0-------------0--------------------0-----------------------------------0-----------------------|--
B|--3/5-----5\3--0--3-----------------0--3--------------------------------0--3--------------------------|--
G|---------------------------------2--2--2-----2--0-----------------------------------------------------|--
D|---------------------------------2--2--2--2--2--2--2--0--2--2--2--2--2--2--2--2--2--2--2--2--2--2--2--|--
A|------------------------------0--0--0--0--0--0--0--0--0--2--2--2--2--2--2--2--2--2--2--2--2--2--2--2--|--
E|--0----0--0----0--0--0--0--3-----------------------------0--0--0--0--0--0--0--0--0--0--0--0--0--0--0--|--

Stave 3:

E|-------0-------------0-----------------0--------------------------------3--0-----------------------------
B|--3/5-----5\3--0--3--------------0--3--------------------------------0--3--0-----------------------------
G|------------------------2--2--2-----------2--0-----------------------------------------------------------
D|------------------------2--2--2--2--2--2--2--2--2--0--2--2--2--2--2-----------2--2--2--2--2--2--2--2--2--
A|--0----0--0----0--0--0--0--0--0--0--0--0--0--0--0--0--2--2--2--2--2--2--2--2--2--2--2-----2--2--2--2--2--
E|------------------------------------------------------0--0--0--0--0--0--0--0--0--0--0--0--0--0--0--0--0--

Stave 4:

E|--------------------------------|--3-------------------------|-------0--------0--------0-----------------
B|--------------------------------|-----5--3-------------------|----------------------------------------0--
G|----2h4--4--4r2--0--2--4--4--2--|-----------4\2--0-----------|--2/4-----4--3-----3--2-----2--1--------2--
D|----1----1--1----1--1--1--1--2--|-------------------2--0--2--|----------------------------------------1--
A|----2----2--2----2--2--2--2--0--|-------------------------2--|-------------4--------3--------2--0--1--2--
E|--------------------------------|-------------------------0--|-------------------------------------------

Stave 5:

E|----7--7--7--0--7--------------7--7--0-------------------------------------3--0-----------------------
B|----8--8--8--8--8--------------8--8--8--3-------------------------------0-----------------------------
G|-------------------------------------------4\2--0-----------------------------------------------------
D|-------------------------2--2----------------------2--0--2--2--2--2--2-----------2--2--2--2--2--2--2--
A|----------------------------2----------------------------2--2--2--2--2--2--2--2--2--2--2--2--2--2--2--
E|----0--0--0--0--0--0--3-----0--0--0--0-------------------0--0--0--0--0--0--0--0--0--0--0--0--0--0--0--

Stave 6:

E|----9---9---7--0--------------------0-----------------------------------0-----------------------------|--
B|----10--10--8--8--------------0--3--------------------------------0--3--------------------------------|--
G|---------------------------2-----------2--0-----------------------------------------------------------|--
D|---------------------------2--2--2--2--2--2--2--0--2--2--2--2--2--------------------2-----------------|--
A|------------------------0--0--0--0--0--0--0--0--0--2--2--2--2--2-----------2--2--2--2--2--2--2--2--2--|--
E|----0---0---0--0--0--3-----------------------------0--0--0--0--0--0--0--0--0--0--0--0--0--0--0--0--0--|--

Stave 7:

E|----------------------3--3--------------------3--3--------------------3--3--------------------3--3--
B|----------------------3--3--------------------3--3--------------------3--3--------------------3--3--
G|----------------------------------------------------------------------------------------------------
D|----2--2--2--2--2--2--------------------------------------------------------2--2--2--2--2--2--2--2--
A|----2--2--2--2--2--2--2--2--2--2--2--2--2--2--2--2--2--2--2--2--2--2--2--2--0--0--0--0--0--0--0--0--
E|----0--0--0--0--0--0--0--0--0--0--0--0--0--0--0--0--0--0--0--0--0--0--0--0--------------------------

Stave 8:

E|--------------------3--3-----------------------------------------------|--
B|--------------------3--3-----------------------------------------------|--
G|-----------------------------------------------------------------------|--
D|--2--2--2--2--2--2--2--2-----------------------------------------------|--
A|--0--0--0--0--0--0--0--0--2--2--2--2--2--2--2--2--2--2--2--2--2--2--2--|--
E|--------------------------0--0--0--0--0--0--0--0--0--0--0--0--0--0--0--|--

Stave 9:

E|---------0-----------------------------0-------------------------11-----11-----11-----11-----11-----11--
B|---------------------3--------------------------------3-------7------7------7------7------7------7------
G|----2/4-----------------4\2r0-----2/4--------------------4\2--x---------x----------x---------x----------
D|-------------------------------2------------------------------x---------x----------x---------x----------
A|----0----0--0--0--0--0--0------0--0----0--0--0--0--0-----0----x---------x----------x---------x----------
E|--------------------------------------------------------------7---------7----------7---------7----------

Stave 10:

E|-------9-----9-----9-----9-----9-----9-----|--
B|----5-----5-----5-----5-----5-----5--------|--
G|----x--------x--------x--------x-----------|--
D|----x--------x--------x--------x-----------|--
A|----x--------x--------x--------x--------2--|--
E|----5--------5--------5--------5--------0--|--

http://www.guitartabcreator.com
Guitar Tab Creator is intended to store guitar tab created through the tool. It currently does not support in-line text editing. Any text you place in here will be lost. If you need to comment on your tab, please use the "Tab Notes" section located below.