Scales and Exercises

Chords

01234567891011121314151617181920212223
E
B
G
D
A
E
B
0 1 2 3 4 5 6 7 8 9 10 11 12 13 14 15 16 17 18 19 20 21 22 23
(/) Slide Up  (\) Slide Down  (h) Hammer On  (p) Pull Off  (b) Bend (r) Release (v) Vibrato

Blues Scale

E|--------------------------------------5--8--5--------------------------------------
B|--------------------------------5--8-----------8--5--------------------------------
G|-----------------------5--7--8-----------------------8--7--5-----------------------
D|-----------------5--7-----------------------------------------7--5-----------------
A|--------5--6--7-----------------------------------------------------7--6--5--------
E|--5--8-----------------------------------------------------------------------8--5--

Blues Scale (variation)

E|--------------------------------------------------------10--------------------------------------------------------
B|-----------------------------------------8--10--11--12------12--11--10--8-----------------------------------------
G|-----------------------------------7--9------------------------------------9--7-----------------------------------
D|-----------------------5--7--8--9------------------------------------------------9--8--7--5-----------------------
A|-----------------5--7------------------------------------------------------------------------7--5-----------------
E|--0--3--5--6--7------------------------------------------------------------------------------------7--6--5--3--0--

Major 1

E|--------------------------------------------5--6--8--6--5--------------------------------------------
B|--------------------------------------6--8-----------------8--6--------------------------------------
G|-----------------------------5--7--8-----------------------------8--7--5-----------------------------
D|--------------------5--7--8-----------------------------------------------8--7--5--------------------
A|-----------5--6--8-----------------------------------------------------------------8--6--5-----------
E|--5--6--8-----------------------------------------------------------------------------------8--6--5--

Major 2

E|--------------------------------------------6--8--6--------------------------------------------
B|-----------------------------------6--8--9-----------9--8--6-----------------------------------
G|--------------------------5--7--8-----------------------------8--7--5--------------------------
D|-----------------5--6--8-----------------------------------------------8--6--5-----------------
A|--------5--6--8-----------------------------------------------------------------8--6--5--------
E|--6--8-----------------------------------------------------------------------------------8--6--

Minor Pentatonic (variation)

E|--------------------------------5--8--5--------------------------------
B|--------------------------6--8-----------8--6--------------------------
G|--------------------5--7-----------------------7--5--------------------
D|--------------5--7-----------------------------------7--5--------------
A|--------5--8-----------------------------------------------8--5--------
E|--5--8-----------------------------------------------------------8--5--

Classical Exercise

E|-------------------------------------------------------------
B|-------------------------------------------------------------
G|-------------10-------------10--12--8---------10-------------
D|--8--10--12------9--10--12-------------10--8------12--10--8--
A|-------------------------------------------------------------
E|-------------------------------------------------------------

							http://www.guitartabcreator.com
Instruments
{"strings":[[[".",".",".",".",".",".",".",".",".",".",".",".",5,8,5,".",".",".",".",".",".",".",".",".",".",".","."],[".",".",".",".",".",".",".",".",".",".",5,8,".",".",".",8,5,".",".",".",".",".",".",".",".",".","."],[".",".",".",".",".",".",".",5,7,8,".",".",".",".",".",".",".",8,7,5,".",".",".",".",".",".","."],[".",".",".",".",".",5,7,".",".",".",".",".",".",".",".",".",".",".",".",".",7,5,".",".",".",".","."],[".",".",5,6,7,".",".",".",".",".",".",".",".",".",".",".",".",".",".",".",".",".",7,6,5,".","."],[5,8,".",".",".",".",".",".",".",".",".",".",".",".",".",".",".",".",".",".",".",".",".",".",".",8,5]],[[".",".",".",".",".",".",".",".",".",".",".",".",".",".",".",".",".",10,".",".",".",".",".",".",".",".",".",".",".",".",".",".",".",".","."],[".",".",".",".",".",".",".",".",".",".",".",".",".",8,10,11,12,".",12,11,10,8,".",".",".",".",".",".",".",".",".",".",".",".","."],[".",".",".",".",".",".",".",".",".",".",".",7,9,".",".",".",".",".",".",".",".",".",9,7,".",".",".",".",".",".",".",".",".",".","."],[".",".",".",".",".",".",".",5,7,8,9,".",".",".",".",".",".",".",".",".",".",".",".",".",9,8,7,5,".",".",".",".",".",".","."],[".",".",".",".",".",5,7,".",".",".",".",".",".",".",".",".",".",".",".",".",".",".",".",".",".",".",".",".",7,5,".",".",".",".","."],[0,3,5,6,7,".",".",".",".",".",".",".",".",".",".",".",".",".",".",".",".",".",".",".",".",".",".",".",".",".",7,6,5,3,0]],[[".",".",".",".",".",".",".",".",".",".",".",".",".",".",5,6,8,6,5,".",".",".",".",".",".",".",".",".",".",".",".",".","."],[".",".",".",".",".",".",".",".",".",".",".",".",6,8,".",".",".",".",".",8,6,".",".",".",".",".",".",".",".",".",".",".","."],[".",".",".",".",".",".",".",".",".",5,7,8,".",".",".",".",".",".",".",".",".",8,7,5,".",".",".",".",".",".",".",".","."],[".",".",".",".",".",".",5,7,8,".",".",".",".",".",".",".",".",".",".",".",".",".",".",".",8,7,5,".",".",".",".",".","."],[".",".",".",5,6,8,".",".",".",".",".",".",".",".",".",".",".",".",".",".",".",".",".",".",".",".",".",8,6,5,".",".","."],[5,6,8,".",".",".",".",".",".",".",".",".",".",".",".",".",".",".",".",".",".",".",".",".",".",".",".",".",".",".",8,6,5]],[[".",".",".",".",".",".",".",".",".",".",".",".",".",".",6,8,6,".",".",".",".",".",".",".",".",".",".",".",".",".","."],[".",".",".",".",".",".",".",".",".",".",".",6,8,9,".",".",".",9,8,6,".",".",".",".",".",".",".",".",".",".","."],[".",".",".",".",".",".",".",".",5,7,8,".",".",".",".",".",".",".",".",".",8,7,5,".",".",".",".",".",".",".","."],[".",".",".",".",".",5,6,8,".",".",".",".",".",".",".",".",".",".",".",".",".",".",".",8,6,5,".",".",".",".","."],[".",".",5,6,8,".",".",".",".",".",".",".",".",".",".",".",".",".",".",".",".",".",".",".",".",".",8,6,5,".","."],[6,8,".",".",".",".",".",".",".",".",".",".",".",".",".",".",".",".",".",".",".",".",".",".",".",".",".",".",".",8,6]],[[".",".",".",".",".",".",".",".",".",".",5,8,5,".",".",".",".",".",".",".",".",".","."],[".",".",".",".",".",".",".",".",6,8,".",".",".",8,6,".",".",".",".",".",".",".","."],[".",".",".",".",".",".",5,7,".",".",".",".",".",".",".",7,5,".",".",".",".",".","."],[".",".",".",".",5,7,".",".",".",".",".",".",".",".",".",".",".",7,5,".",".",".","."],[".",".",5,8,".",".",".",".",".",".",".",".",".",".",".",".",".",".",".",8,5,".","."],[5,8,".",".",".",".",".",".",".",".",".",".",".",".",".",".",".",".",".",".",".",8,5]],[[".",".",".",".",".",".",".",".",".",".",".",".",".",".",".","."],[".",".",".",".",".",".",".",".",".",".",".",".",".",".",".","."],[".",".",".",10,".",".",".",10,12,8,".",".",10,".",".","."],[8,10,12,".",9,10,12,".",".",".",10,8,".",12,10,8],[".",".",".",".",".",".",".",".",".",".",".",".",".",".",".","."],[".",".",".",".",".",".",".",".",".",".",".",".",".",".",".","."]]],"numberofstrings":6,"notes":["E","B","G","D","A","E","B"],"capo":0,"stringnotes":["E4","B3","G3","D3","A2","E2"],"comments":["Blues Scale","Blues Scale (variation)","Major 1","Major 2","Minor Pentatonic (variation)","Classical Exercise"],"timing":[[null,null,null,null,null,null,null,null,null,null,null,null,null,null,null,null,null,null,null,null,null,null,null,null,null,null,null],[null,null,null,null,null,null,null,null,null,null,null,null,null,null,null,null,null,null,null,null,null,null,null,null,null,null,null,null,null,null,null,null,null,null,null],[null,null,null,null,null,null,null,null,null,null,null,null,null,null,null,null,null,null,null,null,null,null,null,null,null,null,null,null,null,null,null,null,null],[null,null,null,null,null,null,null,null,null,null,null,null,null,null,null,null,null,null,null,null,null,null,null,null,null,null,null,null,null,null,null],[null,null,null,null,null,null,null,null,null,null,null,null,null,null,null,null,null,null,null,null,null,null,null],[null,null,null,null,null,null,null,null,null,null,null,null,null,null,null,null]],"timingvisible":false,"tabcounter":16,"stave":5,"totalstaves":6,"instrument":"6guitar","selectedtuning":"6_standard","version":"13"}

Member for

1 month 3 weeks
Submitted by stevejeffery81 on Mon, 2020-08-10 04:45