Sound will begin in 5 seconds

Gymnopedie no. 1

Chords
01234567891011121314151617181920212223
E
B
G
D
A
E
B
0 1 2 3 4 5 6 7 8 9 10 11 12 13 14 15 16 17 18 19 20 21 22 23
Song Science #1: How Pros Use 6 Chords to Write Hit Songs
(/) Slide Up  (\) Slide Down  (h) Hammer On  (p) Pull Off  (b) Bend (r) Release (v) Vibrato

Stave 1:

E|-------4-----------4-----------4-----------4-----------4----7----5----4---------
B|-------5-----------4-----------5-----------4-----------5--------------4----4----
G|-------6-----------4-----------6-----------4-----------6--------------4---------
D|--------------------------------------------------------------------------------
A|--0-----------------------0-----------------------0-----------------------------
E|--------------0-----------------------0--------------------------0--------------

Stave 2:

E|------------------------4-----------4-----------4---------4---------4----
B|---------4----5---------4-----------5-----------4---------5---------4----
G|----6----6---------4----------------6-----------4---------6---------4----
D|-------------------------------6-----------------------------------------
A|----0--------------------------0---------------------0-------------------
E|-------------------0-----------------------0-------------------0---------

Stave 3:

E|---------4----7----5----4-----------------------------4---------------
B|---------5--------------4----4---------4----5---------4------4--------
G|---------6--------------4---------6----6---------4--------------4------
D|----------------------------------------------------------------6------
A|----0-----------------------------0-----------------------------------
E|-------------------0-----------------------------0-----------4--------

Stave 4:

E|------4-----------2--------------------------------------------------
B|-----------5-----------2-----------5-----------5-----------2----3----
G|-----------6-----------2-----------2-----------4------4----4---------
D|------------------------------4----------------5---------------------
A|------4-----------------------------------------------2--------------
E|------------------2-----------2-----------0--------------------------

Stave 5:

E|-------------------0--------------0---------------------0----2----3----5----
B|----7----5--------------3----2---------0-----------0------------------------
G|---------6----6---------4--------------0-----------0------------------------
D|----------------------------------------------------------------------------
A|----------------------------------------------------------------------------
E|----0--------------0--------------0-----------0--------------0--------------

Stave 6:

E|----7---------0-------------------0---------------------0----5-----------
B|-------------------7----5--------------0-----------0--------------2------
G|---------7--------------6----6---------0-----------0--------------2------
D|---------9---------------------------------------------------------------
A|-------------------------------------------------------------------------
E|----0--------------0--------------0-----------0--------------2-----------

Stave 7:

E|----4------------------------------------2--------------2---------2----
B|---------4---------------------4----5---------4----5---------5---------
G|---------4------6----4----6--------------------------------------------
D|---------------------6---------4--------------4--------------4---------
A|----------------4------------------------------------------------------
E|----4--------------------------2--------------2--------------2---------

Stave 8:

E|----10--------12--
B|----7---------9---
G|----7---------9---
D|------------------
A|------------------
E|----7---------0---

Stave 9:

E|------3---------------------3----2----0---------2----0---------0----5----
B|-----------0------2----3-------------------3-----------------------------
G|-----------0-----------4--------------4--------------4----0--------------
D|-----------------------5--------------4--------------5--------------4----
A|---------------------------------------------------------------4---------
E|------2-----------2--------------2--------------2---------2--------------

Stave 10:

E|----10--------12--
B|----7---------9---
G|----7---------9---
D|------------------
A|------------------
E|----7---------0---

http://www.guitartabcreator.com
Guitar Tab Creator is intended to store guitar tab created through the tool. It currently does not support in-line text editing. Any text you place in here will be lost. If you need to comment on your tab, please use the "Tab Notes" section located below.