Sound will begin in 5 seconds

Varsity Solo

01234567891011121314151617181920212223
E
B
G
D
A
E
B
0 1 2 3 4 5 6 7 8 9 10 11 12 13 14 15 16 17 18 19 20 21 22 23
(/) Slide Up  (\) Slide Down  (h) Hammer On  (p) Pull Off  (b) Bend (r) Release (v) Vibrato

Stave 1:

E|----------------------------------------------------------------------------------------------------
B|------------------------------------------------------------------------------------------------15--
G|--12b14--12b14--12b14--14r12--7--10/14--7--10/12--12b14--12b14--12b14--14r12--7--10/14--10--14------
D|----------------------------------------------------------------------------------------------------
A|----------------------------------------------------------------------------------------------------
E|----------------------------------------------------------------------------------------------------

Stave 2:

E|----------------------------------------------------------------------13h15--15--15--
B|--15b18--14b17--15-----13h15p13------13------------------------13h15-----------------
G|---------------------------------14------14b17--12h14v--12h14------------------------
D|-------------------------------------------------------------------------------------
A|-------------------------------------------------------------------------------------
E|-------------------------------------------------------------------------------------

http://www.guitartabcreator.com
Guitar Tab Creator is intended to store guitar tab created through the tool. It currently does not support in-line text editing. Any text you place in here will be lost. If you need to comment on your tab, please use the "Tab Notes" section located below.