Test0

Chords

01234567891011121314151617181920212223
E
B
G
D
A
E
B
0 1 2 3 4 5 6 7 8 9 10 11 12 13 14 15 16 17 18 19 20 21 22 23
(/) Slide Up  (\) Slide Down  (h) Hammer On  (p) Pull Off  (b) Bend (r) Release (v) Vibrato

Stave 1:

E|-----------------------------------------------------------------------------------------------
B|-----------------------------------------------------------------------------------------------
G|-----------------------------------------------------------------------------------------------
D|-----------------------------------------------------------------------------------------------
A|--5-----2-----0-----2-----5-----2-----0-----2-----5-----2-----0-----2--7--8--7--5--7--5--2--0--
D|--5-----2-----0-----2-----5-----2-----0-----2-----5-----2-----0-----2--7--8--7--5--7--5--2--0--

Stave 2:

E|-----------------------------------------------------------
B|--------------------------------------------4-----4-----4--
G|--------------------------------------------2-----2-----2--
D|-----------------------------------------------------------
A|--5-----2-----0-----2-----5-----2-----0--------------------
D|--5-----2-----0-----2-----5-----2-----0--------------------

							http://www.guitartabcreator.com
Instruments
{"title":"Test0","strings":[[["_","_",".","_",".","_",".","_",".","_",".","_",".","_",".","_",".","_",".","_",".","_",".",".",".",".",".",".",".",".","."],["_","_",".","_",".","_",".","_",".","_",".","_",".","_",".","_",".","_",".","_",".","_",".",".",".",".",".",".",".",".","."],["_","_",".","_",".","_",".","_",".","_",".","_",".","_",".","_",".","_",".","_",".","_",".",".",".",".",".",".",".",".","."],["_","_",".","_",".","_",".","_",".","_",".","_",".","_",".","_",".","_",".","_",".","_",".",".",".",".",".",".",".",".","."],[5,"_",2,"_",0,"_",2,"_",5,"_",2,"_",0,"_",2,"_",5,"_",2,"_",0,"_",2,7,8,7,5,7,5,2,0],[5,"_",2,"_",0,"_",2,"_",5,"_",2,"_",0,"_",2,"_",5,"_",2,"_",0,"_",2,7,8,7,5,7,5,2,0]],[[".","_",".","_",".","_",".","_",".","_",".","_",".","_","_","_",".","_","."],[".","_",".","_",".","_",".","_",".","_",".","_",".","_",4,"_",4,"_",4],[".","_",".","_",".","_",".","_",".","_",".","_",".","_",2,"_",2,"_",2],[".","_",".","_",".","_",".","_",".","_",".","_",".","_","_","_",".","_","."],[5,"_",2,"_",0,"_",2,"_",5,"_",2,"_",0,"_","_","_",".","_","."],[5,"_",2,"_",0,"_",2,"_",5,"_",2,"_",0,"_","_","_",".","_","."]]],"numberofstrings":6,"notes":["E","B","G","D","A","D","B"],"capo":0,"stringnotes":["E4","B3","G3","D3","A2","D2"],"comments":["Stave 1:","Stave 2:"],"timing":[["W","W","W",null,"W",null,"W",null,"W",null,"W",null,"W",null,"W",null,"W",null,"W",null,"W",null,"W","W","W","W","W","W","W","W","W"],["W",null,"W",null,"W",null,"W",null,"W",null,"W",null,"W",null,"W","W","W","W","W"]],"timingvisible":false,"tabcounter":19,"stave":1,"totalstaves":2,"instrument":"6guitar","selectedtuning":"6_standard","version":"13"}

Member for

8 months
Submitted by Stempe on Mon, 2019-11-04 05:15