Sound will begin in 5 seconds

The Ballad of Rynden Wayne

Chords
01234567891011121314151617181920212223
E
B
G
D
A
E
B
0 1 2 3 4 5 6 7 8 9 10 11 12 13 14 15 16 17 18 19 20 21 22 23
(/) Slide Up  (\) Slide Down  (h) Hammer On  (p) Pull Off  (b) Bend (r) Release (v) Vibrato

Stave 1:

E|-------------------------------------------------------------
B|-------------------------------------------------------------
G|--------3h5p3--------------------------3h5p3-----------------
D|---------------5--3---------------------------5--3-----------
A|--5--5---------------6--5--3-----5--5---------------6--5--3--
E|-------------------------------------------------------------

Stave 2:

E|-----------------------------------------------------
B|-----------------------------------------------------
G|-----------------------------------------------------
D|--------5--------------------------5-----------------
A|-----5--------------------------5--------------------
E|--3--------3--6--5--3--1-----3--------3--6--5--3--1--

Stave 3:

E|--5--5--5--5--3--3--3--3--1--1--1--1-----5--5--5--5--3--3--3--3--1--1--1--1--
B|--6--6--6--6--3--3--3--3--1--1--1--1-----6--6--6--6--3--3--3--3--1--1--1--1--
G|--5--5--5--5--4--4--4--4--2--2--2--2-----5--5--5--5--4--4--4--4--2--2--2--2--
D|--7--7--7--7--3--3--3--3--3--3--3--3-----7--7--7--7--3--3--3--3--3--3--3--3--
A|--5--5--5--5--5--5--5--5--3--3--3--3-----5--5--5--5--5--5--5--5--3--3--3--3--
E|--------------3--3--3--3--1--1--1--1-----------------3--3--3--3--1--1--1--1--

Stave 4:

E|-----------5--------------------5-----------7--7--7--7-----7--7--7--7--
B|-----5--------5-----------5--------5--------7--7--7--7-----7--7--7--7--
G|--------5--------5-----------5--------5-----8--8--8--8-----8--8--8--8--
D|--------------------6--------------------6--9--9--9--9-----9--9--9--9--
A|--------------------------------------------9--9--9--9-----9--9--9--9--
E|--5--------------------5--------------------7--7--7--7-----7--7--7--7--

http://www.guitartabcreator.com
Guitar Tab Creator is intended to store guitar tab created through the tool. It currently does not support in-line text editing. Any text you place in here will be lost. If you need to comment on your tab, please use the "Tab Notes" section located below.