Έλα απόψε στου Θωμά

Chords

01234567891011121314151617181920212223
E
B
G
D
A
E
B
0 1 2 3 4 5 6 7 8 9 10 11 12 13 14 15 16 17 18 19 20 21 22 23
(/) Slide Up  (\) Slide Down  (h) Hammer On  (p) Pull Off  (b) Bend (r) Release (v) Vibrato

Stave 1:

E|------------------3--2-----2--------------------|------------------3--2-----2--------------------
B|--1/3--3--1/3--3--------4-----3-----3-----3-----|--1/3--3--1/3--3--------4-----3-----3-----3-----
G|------------------------------------------------|------------------------------------------------
D|------------------------------------------------|------------------------------------------------
A|------------------------------------------------|------------------------------------------------
E|------------------------------------------------|------------------------------------------------

Stave 2:

E|--10--10--10--10--10--10--8--7--8--7--5--|--10--10--10--10--10--10--8--10--8--7--8--7--5--
B|-----------------------------------------|------------------------------------------------
G|-----------------------------------------|------------------------------------------------
D|-----------------------------------------|------------------------------------------------
A|-----------------------------------------|------------------------------------------------
E|-----------------------------------------|------------------------------------------------

Stave 3:

E|--6--8--6--5--6--8--6--5--6--8--6--5--6--5--3--|--2--3--5--6--8--5--6--3--5-----5-----5-----
B|-----------------------------------------------|--------------------------------------------
G|-----------------------------------------------|--------------------------------------------
D|-----------------------------------------------|--------------------------------------------
A|-----------------------------------------------|--------------------------------------------
E|-----------------------------------------------|--------------------------------------------

Stave 4:

E|--6--8--6--5--6--8--6--5--6--8--6--5--6-----5-----3--|--2-----3-----4-----3--4--2--3-----2-----------------
B|-----------------------------------------------------|--------------------------------4-----3-----3-----3--
G|-----------------------------------------------------|-----------------------------------------------------
D|-----------------------------------------------------|-----------------------------------------------------
A|-----------------------------------------------------|-----------------------------------------------------
E|-----------------------------------------------------|-----------------------------------------------------

Stave 5:

E|------------------3--2-----2--------------------|------------------3--2-----2--------------------
B|--1/3--3--1/3--3--------4-----3-----3-----3-----|--1/3--3--1/3--3--------4-----3-----3-----3-----
G|------------------------------------------------|------------------------------------------------
D|------------------------------------------------|------------------------------------------------
A|------------------------------------------------|------------------------------------------------
E|------------------------------------------------|------------------------------------------------

Stave 6:

E|--------5--5--4--2--4--5--5--|--10--8--7-----8--7--5-----7--5--4--7--5--7--5--4--5--2--
B|--3--3-----------------------|---------------------------------------------------------
G|-----------------------------|---------------------------------------------------------
D|-----------------------------|---------------------------------------------------------
A|-----------------------------|---------------------------------------------------------
E|-----------------------------|---------------------------------------------------------

Stave 7:

E|--------5--5--4--2--4--5--5--|--10--8--7-----8--7--5-----7--5--4--7--5-----5--7--8--9--
B|--3--3-----------------------|---------------------------------------------------------
G|-----------------------------|---------------------------------------------------------
D|-----------------------------|---------------------------------------------------------
A|-----------------------------|---------------------------------------------------------
E|-----------------------------|---------------------------------------------------------

Stave 8:

E|--10-----10-----10-----10-----8-----7-----8-----7-----5--|--10-----10-----10-----10-----8-----7-----8-----7-----5--
B|---------------------------------------------------------|---------------------------------------------------------
G|---------------------------------------------------------|---------------------------------------------------------
D|---------------------------------------------------------|---------------------------------------------------------
A|---------------------------------------------------------|---------------------------------------------------------
E|---------------------------------------------------------|---------------------------------------------------------

Stave 9:

E|--10-----10--10--10-----10--10--8--10--7--10--8--10--7--8--5--|--10-----10--10--10-----10--10--8--10--7--10--8--10--7--8--5--
B|--------------------------------------------------------------|--------------------------------------------------------------
G|--------------------------------------------------------------|--------------------------------------------------------------
D|--------------------------------------------------------------|--------------------------------------------------------------
A|--------------------------------------------------------------|--------------------------------------------------------------
E|--------------------------------------------------------------|--------------------------------------------------------------

Stave 10:

E|--6-----6-----6-----6-----6-----5-----5--3--3--2--3--|--5-----5-----5-----3-----5--3--3-----2--2-----2--3--5--8--
B|-----------------------------------------------------|-----------------------------------------------------------
G|-----------------------------------------------------|-----------------------------------------------------------
D|-----------------------------------------------------|-----------------------------------------------------------
A|-----------------------------------------------------|-----------------------------------------------------------
E|-----------------------------------------------------|-----------------------------------------------------------

Stave 11:

E|--6-----6-----6-----6-----6-----5-----5--3--3--2--3--|--5-----5-----5-----3-----5--3--3-----2--2-----------2--5--
B|-----------------------------------------------------|-----------------------------------------------3--4--------
G|-----------------------------------------------------|-----------------------------------------------------------
D|-----------------------------------------------------|-----------------------------------------------------------
A|-----------------------------------------------------|-----------------------------------------------------------
E|-----------------------------------------------------|-----------------------------------------------------------

Stave 12:

E|--3-----2--------------------------2-----3-----4--|--3-----3-----2-----------------------2--3--5-----------2--5--
B|--------------4--3--1-----3--4--------------------|--------------------4--3--1-----3--4--------------3--4--------
G|--------------------------------------------------|--------------------------------------------------------------
D|--------------------------------------------------|--------------------------------------------------------------
A|--------------------------------------------------|--------------------------------------------------------------
E|--------------------------------------------------|--------------------------------------------------------------

Stave 13:

E|--3-----2-----------------------------2-----3-----4--|--2-----3-----4-----3-----2--------------------------
B|--------------4--3--1-----3-----4--------------------|--------------------------------4-----3-----3-----3--
G|-----------------------------------------------------|-----------------------------------------------------
D|-----------------------------------------------------|-----------------------------------------------------
A|-----------------------------------------------------|-----------------------------------------------------
E|-----------------------------------------------------|-----------------------------------------------------

Stave 14:

E|-----------------------3--2-----2-----------------|-----------------------3--2-----2--------2-----5-----10--
B|--1-----3--3--3--3-----------4-----3-----3-----3--|--1-----3--3--3--3-----------4-----3---------------------
G|--------------------------------------------------|---------------------------------------------------------
D|--------------------------------------------------|---------------------------------------------------------
A|--------------------------------------------------|---------------------------------------------------------
E|--------------------------------------------------|---------------------------------------------------------

							http://www.guitartabcreator.com
Instruments
{"strings":[[[".",".",".",".",".",".",".",".",3,2,".",2,".","_",".","_",".","_","|",".",".",".",".",".",".",".",".",3,2,".",2,".","_",".","_",".","_"],[1,"/",3,3,1,"/",3,3,".",".",4,".",3,"_",3,"_",3,"_","|",1,"/",3,3,1,"/",3,3,".",".",4,".",3,"_",3,"_",3,"_"],[".",".",".",".",".",".",".",".",".",".",".",".",".","_",".","_",".","_","|",".",".",".",".",".",".",".",".",".",".",".",".",".","_",".","_",".","_"],[".",".",".",".",".",".",".",".",".",".",".",".",".","_",".","_",".","_","|",".",".",".",".",".",".",".",".",".",".",".",".",".","_",".","_",".","_"],[".",".",".",".",".",".",".",".",".",".",".",".",".","_",".","_",".","_","|",".",".",".",".",".",".",".",".",".",".",".",".",".","_",".","_",".","_"],[".",".",".",".",".",".",".",".",".",".",".",".",".","_",".","_",".","_","|",".",".",".",".",".",".",".",".",".",".",".",".",".","_",".","_",".","_"]],[[10,10,10,10,10,10,8,7,8,7,5,"|",10,10,10,10,10,10,8,10,8,7,8,7,5],[".",".",".",".",".",".",".",".",".",".",".","|",".",".",".",".",".",".",".",".",".",".",".",".","."],[".",".",".",".",".",".",".",".",".",".",".","|",".",".",".",".",".",".",".",".",".",".",".",".","."],[".",".",".",".",".",".",".",".",".",".",".","|",".",".",".",".",".",".",".",".",".",".",".",".","."],[".",".",".",".",".",".",".",".",".",".",".","|",".",".",".",".",".",".",".",".",".",".",".",".","."],[".",".",".",".",".",".",".",".",".",".",".","|",".",".",".",".",".",".",".",".",".",".",".",".","."]],[[6,8,6,5,6,8,6,5,6,8,6,5,6,5,3,"|",2,3,5,6,8,5,6,3,5,"_",5,"_",5,"_"],[".",".",".",".",".",".",".",".",".",".",".",".",".",".",".","|",".",".",".",".",".",".",".",".",".","_",".","_",".","_"],[".",".",".",".",".",".",".",".",".",".",".",".",".",".",".","|",".",".",".",".",".",".",".",".",".","_",".","_",".","_"],[".",".",".",".",".",".",".",".",".",".",".",".",".",".",".","|",".",".",".",".",".",".",".",".",".","_",".","_",".","_"],[".",".",".",".",".",".",".",".",".",".",".",".",".",".",".","|",".",".",".",".",".",".",".",".",".","_",".","_",".","_"],[".",".",".",".",".",".",".",".",".",".",".",".",".",".",".","|",".",".",".",".",".",".",".",".",".","_",".","_",".","_"]],[[6,8,6,5,6,8,6,5,6,8,6,5,6,"_",5,"_",3,"|",2,"_",3,"_",4,"_",3,4,2,3,".",2,".","_",".","_","."],[".",".",".",".",".",".",".",".",".",".",".",".",".","_",".","_",".","|",".","_",".","_",".","_",".",".",".",".",4,".",3,"_",3,"_",3],[".",".",".",".",".",".",".",".",".",".",".",".",".","_",".","_",".","|",".","_",".","_",".","_",".",".",".",".",".",".",".","_",".","_","."],[".",".",".",".",".",".",".",".",".",".",".",".",".","_",".","_",".","|",".","_",".","_",".","_",".",".",".",".",".",".",".","_",".","_","."],[".",".",".",".",".",".",".",".",".",".",".",".",".","_",".","_",".","|",".","_",".","_",".","_",".",".",".",".",".",".",".","_",".","_","."],[".",".",".",".",".",".",".",".",".",".",".",".",".","_",".","_",".","|",".","_",".","_",".","_",".",".",".",".",".",".",".","_",".","_","."]],[[".",".",".",".",".",".",".",".",3,2,".",2,".","_",".","_",".","_","|",".",".",".",".",".",".",".",".",3,2,".",2,".","_",".","_",".","_"],[1,"/",3,3,1,"/",3,3,".",".",4,".",3,"_",3,"_",3,"_","|",1,"/",3,3,1,"/",3,3,".",".",4,".",3,"_",3,"_",3,"_"],[".",".",".",".",".",".",".",".",".",".",".",".",".","_",".","_",".","_","|",".",".",".",".",".",".",".",".",".",".",".",".",".","_",".","_",".","_"],[".",".",".",".",".",".",".",".",".",".",".",".",".","_",".","_",".","_","|",".",".",".",".",".",".",".",".",".",".",".",".",".","_",".","_",".","_"],[".",".",".",".",".",".",".",".",".",".",".",".",".","_",".","_",".","_","|",".",".",".",".",".",".",".",".",".",".",".",".",".","_",".","_",".","_"],[".",".",".",".",".",".",".",".",".",".",".",".",".","_",".","_",".","_","|",".",".",".",".",".",".",".",".",".",".",".",".",".","_",".","_",".","_"]],[[".",".",5,5,4,2,4,5,5,"|",10,8,7,"_",8,7,5,"_",7,5,4,7,5,7,5,4,5,2],[3,3,".",".",".",".",".",".",".","|",".",".",".","_",".",".",".","_",".",".",".",".",".",".",".",".",".","."],[".",".",".",".",".",".",".",".",".","|",".",".",".","_",".",".",".","_",".",".",".",".",".",".",".",".",".","."],[".",".",".",".",".",".",".",".",".","|",".",".",".","_",".",".",".","_",".",".",".",".",".",".",".",".",".","."],[".",".",".",".",".",".",".",".",".","|",".",".",".","_",".",".",".","_",".",".",".",".",".",".",".",".",".","."],[".",".",".",".",".",".",".",".",".","|",".",".",".","_",".",".",".","_",".",".",".",".",".",".",".",".",".","."]],[[".",".",5,5,4,2,4,5,5,"|",10,8,7,"_",8,7,5,"_",7,5,4,7,5,"_",5,7,8,9],[3,3,".",".",".",".",".",".",".","|",".",".",".","_",".",".",".","_",".",".",".",".",".","_",".",".",".","."],[".",".",".",".",".",".",".",".",".","|",".",".",".","_",".",".",".","_",".",".",".",".",".","_",".",".",".","."],[".",".",".",".",".",".",".",".",".","|",".",".",".","_",".",".",".","_",".",".",".",".",".","_",".",".",".","."],[".",".",".",".",".",".",".",".",".","|",".",".",".","_",".",".",".","_",".",".",".",".",".","_",".",".",".","."],[".",".",".",".",".",".",".",".",".","|",".",".",".","_",".",".",".","_",".",".",".",".",".","_",".",".",".","."]],[[10,"_",10,"_",10,"_",10,"_",8,"_",7,"_",8,"_",7,"_",5,"|",10,"_",10,"_",10,"_",10,"_",8,"_",7,"_",8,"_",7,"_",5],[".","_",".","_",".","_",".","_",".","_",".","_",".","_",".","_",".","|",".","_",".","_",".","_",".","_",".","_",".","_",".","_",".","_","."],[".","_",".","_",".","_",".","_",".","_",".","_",".","_",".","_",".","|",".","_",".","_",".","_",".","_",".","_",".","_",".","_",".","_","."],[".","_",".","_",".","_",".","_",".","_",".","_",".","_",".","_",".","|",".","_",".","_",".","_",".","_",".","_",".","_",".","_",".","_","."],[".","_",".","_",".","_",".","_",".","_",".","_",".","_",".","_",".","|",".","_",".","_",".","_",".","_",".","_",".","_",".","_",".","_","."],[".","_",".","_",".","_",".","_",".","_",".","_",".","_",".","_",".","|",".","_",".","_",".","_",".","_",".","_",".","_",".","_",".","_","."]],[[10,"_",10,10,10,"_",10,10,8,10,7,10,8,10,7,8,5,"|",10,"_",10,10,10,"_",10,10,8,10,7,10,8,10,7,8,5],[".","_",".",".",".","_",".",".",".",".",".",".",".",".",".",".",".","|",".","_",".",".",".","_",".",".",".",".",".",".",".",".",".",".","."],[".","_",".",".",".","_",".",".",".",".",".",".",".",".",".",".",".","|",".","_",".",".",".","_",".",".",".",".",".",".",".",".",".",".","."],[".","_",".",".",".","_",".",".",".",".",".",".",".",".",".",".",".","|",".","_",".",".",".","_",".",".",".",".",".",".",".",".",".",".","."],[".","_",".",".",".","_",".",".",".",".",".",".",".",".",".",".",".","|",".","_",".",".",".","_",".",".",".",".",".",".",".",".",".",".","."],[".","_",".",".",".","_",".",".",".",".",".",".",".",".",".",".",".","|",".","_",".",".",".","_",".",".",".",".",".",".",".",".",".",".","."]],[[6,"_",6,"_",6,"_",6,"_",6,"_",5,"_",5,3,3,2,3,"|",5,"_",5,"_",5,"_",3,"_",5,3,3,"_",2,2,"_",2,3,5,8],[".","_",".","_",".","_",".","_",".","_",".","_",".",".",".",".",".","|",".","_",".","_",".","_",".","_",".",".",".","_",".",".","_",".",".",".","."],[".","_",".","_",".","_",".","_",".","_",".","_",".",".",".",".",".","|",".","_",".","_",".","_",".","_",".",".",".","_",".",".","_",".",".",".","."],[".","_",".","_",".","_",".","_",".","_",".","_",".",".",".",".",".","|",".","_",".","_",".","_",".","_",".",".",".","_",".",".","_",".",".",".","."],[".","_",".","_",".","_",".","_",".","_",".","_",".",".",".",".",".","|",".","_",".","_",".","_",".","_",".",".",".","_",".",".","_",".",".",".","."],[".","_",".","_",".","_",".","_",".","_",".","_",".",".",".",".",".","|",".","_",".","_",".","_",".","_",".",".",".","_",".",".","_",".",".",".","."]],[[6,"_",6,"_",6,"_",6,"_",6,"_",5,"_",5,3,3,2,3,"|",5,"_",5,"_",5,"_",3,"_",5,3,3,"_",2,2,"_",".",".",2,5],[".","_",".","_",".","_",".","_",".","_",".","_",".",".",".",".",".","|",".","_",".","_",".","_",".","_",".",".",".","_",".",".","_",3,4,".","."],[".","_",".","_",".","_",".","_",".","_",".","_",".",".",".",".",".","|",".","_",".","_",".","_",".","_",".",".",".","_",".",".","_",".",".",".","."],[".","_",".","_",".","_",".","_",".","_",".","_",".",".",".",".",".","|",".","_",".","_",".","_",".","_",".",".",".","_",".",".","_",".",".",".","."],[".","_",".","_",".","_",".","_",".","_",".","_",".",".",".",".",".","|",".","_",".","_",".","_",".","_",".",".",".","_",".",".","_",".",".",".","."],[".","_",".","_",".","_",".","_",".","_",".","_",".",".",".",".",".","|",".","_",".","_",".","_",".","_",".",".",".","_",".",".","_",".",".",".","."]],[[3,"_",2,"_",".",".",".","_",".",".","_",2,"_",3,"_",4,"|",3,"_",3,"_",2,"_",".",".",".","_",".",".",2,3,5,"_",".",".",2,5],[".","_",".","_",4,3,1,"_",3,4,"_",".","_",".","_",".","|",".","_",".","_",".","_",4,3,1,"_",3,4,".",".",".","_",3,4,".","."],[".","_",".","_",".",".",".","_",".",".","_",".","_",".","_",".","|",".","_",".","_",".","_",".",".",".","_",".",".",".",".",".","_",".",".",".","."],[".","_",".","_",".",".",".","_",".",".","_",".","_",".","_",".","|",".","_",".","_",".","_",".",".",".","_",".",".",".",".",".","_",".",".",".","."],[".","_",".","_",".",".",".","_",".",".","_",".","_",".","_",".","|",".","_",".","_",".","_",".",".",".","_",".",".",".",".",".","_",".",".",".","."],[".","_",".","_",".",".",".","_",".",".","_",".","_",".","_",".","|",".","_",".","_",".","_",".",".",".","_",".",".",".",".",".","_",".",".",".","."]],[[3,"_",2,"_",".",".",".","_",".","_",".","_",2,"_",3,"_",4,"|",2,"_",3,"_",4,"_",3,"_",2,"_",".","_",".","_",".","_","."],[".","_",".","_",4,3,1,"_",3,"_",4,"_",".","_",".","_",".","|",".","_",".","_",".","_",".","_",".","_",4,"_",3,"_",3,"_",3],[".","_",".","_",".",".",".","_",".","_",".","_",".","_",".","_",".","|",".","_",".","_",".","_",".","_",".","_",".","_",".","_",".","_","."],[".","_",".","_",".",".",".","_",".","_",".","_",".","_",".","_",".","|",".","_",".","_",".","_",".","_",".","_",".","_",".","_",".","_","."],[".","_",".","_",".",".",".","_",".","_",".","_",".","_",".","_",".","|",".","_",".","_",".","_",".","_",".","_",".","_",".","_",".","_","."],[".","_",".","_",".",".",".","_",".","_",".","_",".","_",".","_",".","|",".","_",".","_",".","_",".","_",".","_",".","_",".","_",".","_","."]],[[".","_",".",".",".",".","_",3,2,".",2,".","_",".","_",".","|",".","_",".",".",".",".","_",3,2,".",2,".","_",2,"_",5,"_",10],[1,"_",3,3,3,3,"_",".",".",4,".",3,"_",3,"_",3,"|",1,"_",3,3,3,3,"_",".",".",4,".",3,"_",".","_",".","_","."],[".","_",".",".",".",".","_",".",".",".",".",".","_",".","_",".","|",".","_",".",".",".",".","_",".",".",".",".",".","_",".","_",".","_","."],[".","_",".",".",".",".","_",".",".",".",".",".","_",".","_",".","|",".","_",".",".",".",".","_",".",".",".",".",".","_",".","_",".","_","."],[".","_",".",".",".",".","_",".",".",".",".",".","_",".","_",".","|",".","_",".",".",".",".","_",".",".",".",".",".","_",".","_",".","_","."],[".","_",".",".",".",".","_",".",".",".",".",".","_",".","_",".","|",".","_",".",".",".",".","_",".",".",".",".",".","_",".","_",".","_","."]]],"numberofstrings":6,"notes":["E","B","G","D","A","E","B"],"capo":0,"stringnotes":["E4","B3","G3","D3","A2","E2"],"comments":["Stave 1:","Stave 2:","Stave 3:","Stave 4:","Stave 5:","Stave 6:","Stave 7:","Stave 8:","Stave 9:","Stave 10:","Stave 11:","Stave 12:","Stave 13:","Stave 14:"],"timing":[["W",null,"W","W","W",null,"W","W","W","W","W","W","W","W","W",null,"W","W","W","W","W","W","W","W","W","W","W","W","W","W","W","W","W","W","W","W","W","W","W","W","W","W","W","W","W","W","W","W",null,"W","W"],["W","W","W","W","W","W","W","W","W","W","W",null,"W","W","W","W","W","W","W","W","W","W","W","W","W","W","W"],["W","W","W","W","W","W","W","W","W","W","W","W","W","W","W",null,"W","W","W","W","W","W","W","W","W",null,"W",null,"W"],["W","W","W","W","W","W","W","W","W","W","W","W","W",null,"W",null,"W",null,"W","W","W",null,"W","W","W","W","W","W","W","W","W","W","W","W","W"],["W",null,"W","W","W",null,"W","W","W","W","W","W","W",null,"W",null,"W",null,null,"W",null,"W","W","W",null,"W","W","W","W","W","W","W",null,"W",null,"W"],["W","W","W","W","W","W","W","W","W",null,"W","W","W","W","W","W","W","W","W","W","W","W","W","W","W","W","W","W"],["W","W","W","W","W","W","W","W","W",null,"W","W","W","W","W","W","W",null,"W","W","W","W","W",null,"W","W","W","W"],["W","W","W","W","W","W","W","W","W","W","W",null,"W",null,"W",null,"W",null,"W",null,"W",null,"W",null,"W",null,"W",null,"W",null,"W",null,"W",null,"W"],["W",null,"W","W","W",null,"W","W","W","W","W","W","W","W","W","W","W",null,"W",null,"W","W","W",null,"W","W","W","W","W","W","W","W","W","W","W"],["W",null,"W",null,"W",null,"W",null,"W",null,"W",null,"W","W","W","W","W",null,"W",null,"W",null,"W",null,"W",null,"W","W","W",null,"W","W",null,"W","W","W","W"],["W",null,"W",null,"W",null,"W",null,"W",null,"W",null,"W","W","W","W","W",null,"W",null,"W",null,"W",null,"W",null,"W","W","W",null,"W","W",null,"W","W","W","W"],["W",null,"W",null,"W","W","W",null,"W","W",null,"W",null,"W",null,"W",null,"W",null,"W",null,"W",null,"W","W","W",null,"W","W","W","W","W",null,"W","W","W","W"],["W",null,"W",null,"W","W","W",null,"W",null,"W",null,"W",null,"W",null,"W",null,"W",null,"W",null,"W",null,"W",null,"W",null,"W",null,"W",null,"W",null,"W"],["W",null,"W","W","W","W","W","W","W","W","W","W",null,"W",null,"W",null,"W",null,"W","W","W","W",null,"W","W","W","W","W",null,"W",null,"W",null,"W"]],"timingvisible":false,"tabcounter":35,"stave":13,"totalstaves":14,"instrument":"6guitar","selectedtuning":"6_standard","version":"13"}

Member for

2 weeks 1 day
Submitted by steft on Thu, 2020-11-19 12:29