Song Idea (witchy)

01234567891011121314151617181920212223
E
B
G
D
A
E
B
0 1 2 3 4 5 6 7 8 9 10 11 12 13 14 15 16 17 18 19 20 21 22 23
(/) Slide Up  (\) Slide Down  (h) Hammer On  (p) Pull Off  (b) Bend (r) Release (v) Vibrato

Stave 1:

E|-----------------------------------------------------------------------
B|-----------------------------------------------------------------------
G|-----------------------------------------------------------------------
D|-----------------------------7--7--------------------------------------
A|--7-----7--------7--------7--9--9--7h9/11--10--9h10--9--7--------------
E|--9-----9--7--9-----9--9-----------------------------------------------

Stave 2:

E|--------------------------------------------------------------------
B|--------------------------------------------------------------------
G|--------------------------------------------------------------------
D|-----------------------------7--7-----------------------------------
A|--9--7--7--------7--------7--9--9--7h9--11--11--10--10--9--9--7--7--
E|-----9--9--7--9-----9--9--------------------------------------------

Stave 3:

E|--------------------------------------------------
B|--------------------------------------------------
G|--------------------------------------------------
D|--------------------------------------------2--2--
A|--7--7--------7--------7--3--2-----2--2--2--2--2--
E|--9--9--7--9-----9--9--9--5--4-----4--4--4--0--0--

Stave 4:

E|------------------------------------------------------
B|------------------------------------------------------
G|------------------------------------------------------
D|------------------------------------------------------
A|--7--7--------7--------3--2--2--------2--3/6/9--7--7--
E|--9--9--7--9-----9--9--5--4--4--2--3------------9--9--

							http://www.guitartabcreator.com
Chords

Instruments
{"strings":[[[".","_",".",".",".",".",".",".",".",".",".",".",".",".",".",".",".",".",".",".",".",".","_","_","_","_"],[".","_",".",".",".",".",".",".",".",".",".",".",".",".",".",".",".",".",".",".",".",".","_","_","_","_"],[".","_",".",".",".",".",".",".",".",".",".",".",".",".",".",".",".",".",".",".",".",".","_","_","_","_"],[".","_",".",".",".",".",".",".",".",7,7,".",".",".",".",".",".",".",".",".",".",".","_","_","_","_"],[7,"_",7,".",".",7,".",".",7,9,9,7,"h",9,"/",11,10,9,"h",10,9,7,"_","_","_","_"],[9,"_",9,7,9,".",9,9,".",".",".",".",".",".",".",".",".",".",".",".",".",".","_","_","_","_"]],[[".",".",".",".",".",".",".",".",".",".",".",".",".",".",".",".",".",".",".",".",".","."],[".",".",".",".",".",".",".",".",".",".",".",".",".",".",".",".",".",".",".",".",".","."],[".",".",".",".",".",".",".",".",".",".",".",".",".",".",".",".",".",".",".",".",".","."],[".",".",".",".",".",".",".",".",".",7,7,".",".",".",".",".",".",".",".",".",".","."],[9,7,7,".",".",7,".",".",7,9,9,7,"h",9,11,11,10,10,9,9,7,7],[".",9,9,7,9,".",9,9,".",".",".",".",".",".",".",".",".",".",".",".",".","."]],[[".",".",".",".",".",".",".",".",".",".","_",".",".",".",".","."],[".",".",".",".",".",".",".",".",".",".","_",".",".",".",".","."],[".",".",".",".",".",".",".",".",".",".","_",".",".",".",".","."],[".",".",".",".",".",".",".",".",".",".","_",".",".",".",2,2],[7,7,".",".",7,".",".",7,3,2,"_",2,2,2,2,2],[9,9,7,9,".",9,9,9,5,4,"_",4,4,4,0,0]],[[".",".",".",".",".",".",".",".",".",".",".",".",".",".",".",".",".",".",".","."],[".",".",".",".",".",".",".",".",".",".",".",".",".",".",".",".",".",".",".","."],[".",".",".",".",".",".",".",".",".",".",".",".",".",".",".",".",".",".",".","."],[".",".",".",".",".",".",".",".",".",".",".",".",".",".",".",".",".",".",".","."],[7,7,".",".",7,".",".",3,2,2,".",".",2,3,"/",6,"/",9,7,7],[9,9,7,9,".",9,9,5,4,4,2,3,".",".",".",".",".",".",9,9]]],"numberofstrings":6,"notes":["E","B","G","D","A","E","B"],"capo":0,"stringnotes":["E4","B3","G3","D3","A2","E2"],"comments":["Stave 1:","Stave 2:","Stave 3:","Stave 4:"],"timing":[["W",null,"W","W","W","W","W","W","W","W","W","W",null,"W","W","W","W","W",null,"W","W","W","W","W"],["W","W","W","W","W","W","W","W","W","W","W","W",null,"W","W","W","W","W","W","W","W","W"],["W","W","W","W","W","W","W","W","W","W","W","W","W","W","W","W"],["W","W","W","W","W","W","W","W","W","W","W","W","W","W",null,"W",null,"W","W","W"]],"timingvisible":false,"tabcounter":19,"stave":3,"totalstaves":4,"instrument":"6guitar","selectedtuning":"6_standard","version":"13"}

Member for

9 months 3 weeks
Submitted by StefanoB on Sun, 2021-03-07 19:39