Second Life with Emily (Peach Pit)

Chords

01234567891011121314151617181920212223
E
B
G
D
A
E
B
0 1 2 3 4 5 6 7 8 9 10 11 12 13 14 15 16 17 18 19 20 21 22 23
(/) Slide Up  (\) Slide Down  (h) Hammer On  (p) Pull Off  (b) Bend (r) Release (v) Vibrato

Stave 1:

E|--4----------------------------------------------------------------------------------------
B|--4----------------------------------------------------------------------------------------
G|--5----------------------------------------------------------------------------------------
D|--6-----17--17--17--17--15--15--15--15--13--13--13--13--18--18--18--18--18--17--20--17-----
A|--6----------------------------------------------------------------------------------------
E|--4----------------------------------------------------------------------------------------

Stave 2:

E|----------------------------------------------------------------------------------------------------
B|----------------------------------------------------------------------------------------------------
G|------12--15--17--15-----17--15---------------------------------------------------------------------
D|--12--------------------------------18--18--18--18--17--17--17--17--15--15--15--15--13--13--13--13--
A|----------------------------------------------------------------------------------------------------
E|----------------------------------------------------------------------------------------------------

Stave 3:

E|----------------------------------
B|----------------------------------
G|----------------------------------
D|--18--18--18--18--18--17--20--17--
A|----------------------------------
E|----------------------------------

							http://www.guitartabcreator.com
genre
Instruments
{"strings":[[[4,"_",".",".",".",".",".",".",".",".",".",".",".",".",".",".",".",".",".",".",".",".","_"],[4,"_",".",".",".",".",".",".",".",".",".",".",".",".",".",".",".",".",".",".",".",".","_"],[5,"_",".",".",".",".",".",".",".",".",".",".",".",".",".",".",".",".",".",".",".",".","_"],[6,"_",17,17,17,17,15,15,15,15,13,13,13,13,18,18,18,18,18,17,20,17,"_"],[6,"_",".",".",".",".",".",".",".",".",".",".",".",".",".",".",".",".",".",".",".",".","_"],[4,"_",".",".",".",".",".",".",".",".",".",".",".",".",".",".",".",".",".",".",".",".","_"]],[[".",".",".",".",".","_",".",".","_",".",".",".",".",".",".",".",".",".",".",".",".",".",".",".","."],[".",".",".",".",".","_",".",".","_",".",".",".",".",".",".",".",".",".",".",".",".",".",".",".","."],[".",12,15,17,15,"_",17,15,"_",".",".",".",".",".",".",".",".",".",".",".",".",".",".",".","."],[12,".",".",".",".","_",".",".","_",18,18,18,18,17,17,17,17,15,15,15,15,13,13,13,13],[".",".",".",".",".","_",".",".","_",".",".",".",".",".",".",".",".",".",".",".",".",".",".",".","."],[".",".",".",".",".","_",".",".","_",".",".",".",".",".",".",".",".",".",".",".",".",".",".",".","."]],[[".",".",".",".",".",".",".","."],[".",".",".",".",".",".",".","."],[".",".",".",".",".",".",".","."],[18,18,18,18,18,17,20,17],[".",".",".",".",".",".",".","."],[".",".",".",".",".",".",".","."]]],"numberofstrings":6,"notes":["E","B","G","D","A","E","B"],"capo":0,"stringnotes":["E4","B3","G3","D3","A2","E2"],"comments":["Stave 1:","Stave 2:","Stave 3:"],"timing":[["W",null,"W","W","W","W","W","W","W","W","W","W","W","W","W","W","W","W","W","W","W","W","W"],["W","W","W","W","W",null,"W","W",null,"W","W","W","W","W","W","W","W","W","W","W","W","W","W","W","W"],["W","W","W","W","W","W","W","W"]],"timingvisible":false,"tabcounter":8,"stave":2,"totalstaves":3,"instrument":"6guitar","selectedtuning":"6_standard","version":"13"}

Member for

3 months 3 weeks
Submitted by StefanoB on Fri, 2020-08-07 12:37